Crash Concrete Tab - Theatre Of Tragedy




Crash/Concrete (guitar tab)

Drop D Tuning


Main riff

|--------------------------|------------------------|
|--------------------------|------------------------|
|--------------------------|------------------------|
|-2-2-2--2----3--0----0----|-2-2-2--2----3--0--2--3-|
|-2-2-2--2----3--0----0----|-2-2-2--2----3--0--2--3-|
|-2-2-2--2----3--0----0----|-2-2-2--2----3--0--2--3-|


|--------------------------|------------------------|
|--------------------------|------------------------|
|--------------------------|------------------------|
|-2-2-2--2----3--0----0----|-2-2-2--2----3--0--2--5-|
|-2-2-2--2----3--0----0----|-2-2-2--2----3--0--2--5-|
|-2-2-2--2----3--0----0----|-2-2-2--2----3--0--2--5-|

That?s it. The whole song is based on this riff.
The bridge is this riff in a chopped version.

ĂŽnscrie-te la newsletter


Join the ranks ! LIKE us on Facebook