An Arrow From The Sun Tab - Therion




ARTIST: THERION
SONG: AN ARROW FROM THE SUN
ALBUM: LEMURIA
TABBED BY: JUAN CARLOS SANDOVAL

THIS IS AN EASY WAY TO PLAY THIS SONG. I LIKE IT VERY
MUCH SO I TABBED IT FOR YOU. ENJOY!

INTRO
E-------------------------------------------------|
B-------------------------------------------------|
G-------------------------------------------------| x2
D-pm-0---0----0-0---0----0--4---4----4-4---4----4-|
A-pm--0---0--0---0---0--0----4---4--4---4---4--4--|
E-pm---2---2------2---2-------2---2------2---2----|


GUITAR 1
E-------------------------------------------------|
B-------------------------------------------------|
G-------------------------------------------------|
D-pm-0---0----0-0---0----0--4---4----4-4---4----4-|
A-pm--0---0--0---0---0--0----4---4--4---4---4--4--|
E-pm---2---2------2---2-------2---2------2---2----|

GUITAR 2  (CLEAN)
E-X------------------------2----------------------|
B-3------------------------3----------------------|
G-4------------------------4----------------------|
D-4------------------------4----------------------|
A-2------------------------2----------------------|
E-2------------------------X----------------------|
Sunshines hides behind a cloud          Eiwar!

GUITAR 1
E-------------------------------------------------|
B-------------------------------------------------|
G-------------------------------------------------|
D-pm-0---0----0-0---0----0--4---4----4-4---4----4-|
A-pm--0---0--0---0---0--0----4---4--4---4---4--4--|
E-pm---2---2------2---2-------2---2------2---2----|

GUITAR 2   (CLEAN)
E-X------------------------2----------------------|
B-3------------------------3----------------------|
G-4------------------------4----------------------|
D-4------------------------4----------------------|
A-2------------------------2----------------------|
E-2------------------------X----------------------|
Theres no light for us to seeEiwar!

GUITAR 1
E-------------------------------------------------|
B-------------------------------------------------|
G-------------------------------------------------|
D-pm-0---0----0-0---0----0--4---4----4-4---4----4-|
A-pm--0---0--0---0---0--0----4---4--4---4---4--4--|
E-pm---2---2------2---2-------2---2------2---2----|

GUITAR 2    (CLEAN)
E-X------------------------2----------------------|
B-3------------------------3----------------------|
G-4------------------------4----------------------|
D-4------------------------4----------------------|
A-2------------------------2----------------------|
E-2------------------------X----------------------|
But a ray is breaking throughEiwar!

GUITAR 1
E-------------------------------------------------|
B-------------------------------------------------|
G-------------------------------------------------|
D-pm-0---0----0-0---0----0--4---4----4-4---4----4-|
A-pm--0---0--0---0---0--0----4---4--4---4---4--4--|
E-pm---2---2------2---2-------2---2------2---2----|

GUITAR 2    (CLEAN)
E-X------------------------2----------------------|
B-3------------------------3----------------------|
G-4------------------------4----------------------|
D-4------------------------4----------------------|
A-2------------------------2----------------------|
E-2------------------------X----------------------|
The ignorance of human mindEiwar!

GUITAR 1
E-------------------------------------------------|
B-------------------------------------------------|
G-------------------------------------------------|
D-pm-0---0----0-0---0----0--4---4----4-4---4----4-|
A-pm--0---0--0---0---0--0----4---4--4---4---4--4--|
E-pm---2---2------2---2-------2---2------2---2----|
  
GUITAR 2    (CLEAN)
E-X------------------------2----------------------|
B-3------------------------3----------------------|
G-4------------------------4----------------------|
D-4------------------------4----------------------|
A-2------------------------2----------------------|
E-2------------------------X----------------------|

GUITAR 3
Wah (DISTORTION)
E-----------------------------------------------------|
B-9~~10-~~--9~~10-~~--10/12-9~~7-~~--7/10-9~~7-~~-7/10|
G-----------------------------------------------------|
D-----------------------------------------------------|
A-----------------------------------------------------|
E-----------------------------------------------------|

E-------------------------------------------------|
B--9~~10-~~--9~~10-~~--10/12-9~~7-~~--7/10-9~~7---|
G-------------------------------------------------|
D-------------------------------------------------|
A-------------------------------------------------|
E-------------------------------------------------|

GUITAR 1   (DISTORTION)|
E-------------------------------------------------||
B-------------------------------------------------||
G-------------------------------------------------||
D-pm-4444--4-pm-7777--7-pm-0000--0--pm-9999--9----||
A----4444--4----7777--7----0000--0-----9999--9----||
E----2222--2----5555--5----2222--2-----7777--7----||
|
GUITAR 2   |
E-------------------------------------------------||
B----5/777-5--------------------------------------||
G------------6-~~~~~-------2/444-2----------------||
D---------------------------------4-~~~~~---------||
A-------------------------------------------------||
E-------------------------------------------------||
| x2
GUITAR 1  (DISTORTION)                                  |
E-------------------------------------------------||
B-------------------------------------------------||
G-------------------------------------------------||
D-pm-4444--4-pm-7777--7-pm-9999--9--pm-5555--5----||
A----4444--4----7777--7----9999--9-----5555--5----||
E----2222--2----5555--5----7777--7-----3333--3----||
|
GUITAR 2   |
E----------7/17-~~-17/21-19-~~-171917-15151715-141415-||
B--5/777-5--------------------------------------------||
G-----------------------------------------------------||
D-----------------------------------------------------||
A-----------------------------------------------------||
E-----------------------------------------------------||

*VERSE*
GUITAR 1   (DISTORTION)
E-------------------------------------------------|
B-------------------------------------------------|
G-------------------------------------------------|
D-pm-4444--4-pm-7777--7-pm-0000--0--pm-9999--9----|
A----4444--4----7777--7----0000--0-----9999--9----|
E----2222--2----5555--5----2222--2-----7777--7----|
       On Olympia,          the sun is born
                                 
E-------------------------------------------------|
B-------------------------------------------------|
G-------------------------------------------------|
D-pm-4444--4-pm-7777--7-pm-9999--9--pm-5555--5----|
A----4444--4----7777--7----9999--9-----5555--5----|
E----2222--2----5555--5----7777--7-----3333--3----|
Radiating from      god Apollo

E-------------------------------------------------|
B-------------------------------------------------|
G-------------------------------------------------|
D-pm-4444--4-pm-7777--7-pm-0000--0--pm-9999--9----|
A----4444--4----7777--7----0000--0-----9999--9----|
E----2222--2----5555--5----2222--2-----7777--7----|
From the utmost norhtarrived a man

E-------------------------------------------------|
B-------------------------------------------------|
G-------------------------------------------------|
D-pm-4444--4-pm-7777--7-pm-9999--9--pm-5555--5----|
A----4444--4----7777--7----9999--9-----5555--5----|
E----2222--2----5555--5----7777--7-----3333--3----|
     And he took a spark,   a shaft of light

GUITAR 1   (palm muted) (DISTORTION)
E-------------------------------------------------|
B-------------------------------------------------|
G--------------3333------------------3333---------|
D----44444-----3333--------44444-----3333---------|
A----44444-----1111-0000---44444-----1111-0000----|
E----22222-320------0000---22222-320------0000----|

GUITAR 1   (palm muted)  (DISTORTION)
E-------------------------------------------------|
B-------------------------------------------------|
G--------------3333------------------3333---------|
D----44444-----3333--------44444-----3333---------|
A----44444-----1111-0000---44444-----1111-0000----|
E----22222-320------0000---22222-320------0000----|

GUITAR 2 (tapping)  (DISTORTION)
E-18-18-18-18-18-18-18-18-18-18-18-18-18-18-18-18-|
B-------------------------------------------------|
G-------------------------------------------------|
D-------------------------------------------------|
A-------------------------------------------------|
E-------------------------------------------------|

CHORUS(Clean)
E-----xx-7-7-----xx-7-7-----xx-7-7-----xx-7-7-----|
B-----xx-8-8-----xx-7-7-----xx-8-8-----xx-7-7-----|
G-----xx-9-9-----xx-8-8-----xx-9-9-----xx-8-8-----|
D-----xx-9-9-----xx-9-9-----xx-9-9-----xx-9-9-----|
A-----xx-7-7-----xx-9-9-----xx-7-7-----xx-9-9-----|
E-----xx-x-x-----xx-7-7-----xx-x-x-----xx-7-7-----|
Arrows from the sun, they penetrate the human mind

E-----xx-7-7-----xx-7-7-----xx-5-5-----xx-2-2-----|
B-----xx-8-8-----xx-7-7-----xx-5-5-----xx-2-2-----|
G-----xx-9-9-----xx-8-8-----xx-6-6-----xx-3-3-----|
D-----xx-9-9-----xx-9-9-----xx-7-7-----xx-4-4-----|
A-----xx-7-7-----xx-9-9-----xx-7-7-----xx-4-4-----|
E-----xx-x-x-----xx-7-7-----xx-5-5-----xx-2-2-----|
Sophia is born when we catch one of these

E-----xx-7-7-----xx-7-7-----xx-7-7-----xx-7-7-----|
B-----xx-8-8-----xx-7-7-----xx-8-8-----xx-7-7-----|
G-----xx-9-9-----xx-8-8-----xx-9-9-----xx-8-8-----|
D-----xx-9-9-----xx-9-9-----xx-9-9-----xx-9-9-----|
A-----xx-7-7-----xx-9-9-----xx-7-7-----xx-9-9-----|
E-----xx-x-x-----xx-7-7-----xx-x-x-----xx-7-7-----|
Arrows from the sun they burn the soul and make us see

E-----xx-7-7-----xx-7-7-----xx-5-5-----xx-2-2-----|
B-----xx-8-8-----xx-7-7-----xx-5-5-----xx-2-2-----|
G-----xx-9-9-----xx-8-8-----xx-6-6-----xx-3-3-----|
D-----xx-9-9-----xx-9-9-----xx-7-7-----xx-4-4-----|
A-----xx-7-7-----xx-9-9-----xx-7-7-----xx-4-4-----|
E-----xx-x-x-----xx-7-7-----xx-5-5-----xx-2-2-----|
   Him who took the spark:    Abaris Eiwar

GUITAR 1  (DISTORTION)
E---------------------------------------------------------|
B---------------------------------------------------------|
G---------------------------------------------------------|
D-pm-777777-9---pm-777777-9---pm-777777-9---pm-777777-9---|
A----777777-9------777777-9------777777-9------777777-9---|
E----555555-7------555555-7------555555-7------555555-7---|

GUITAR 2
E---------------------------------------------------------|
B---------------------------------------------------------|
G-6/7-6------6-6-7/9-7-6--6-6-6/7-6------6-6-7/9-7-6--6-6-|
D------7-7/9--9---------9--9-------7-7/9--9---------9--9--|
A---------------------------------------------------------|
E---------------------------------------------------------|

GUITAR 1  (DISTORTION)
E-------------------------------------------------|
B-------------------------------------------------|
G--7--XX7-XX7XX7-XX7-XX7--------------------------|
D--7--XX7-XX7XX7-XX7-XX7-XX4--XX4-XX4XX4-XX4-XX4--|
A--5--XX5-XX5XX5-XX5-XX5-XX4--XX4-XX4XX4-XX4-XX4--|
E------------------------XX2--XX2-XX2XX2-XX2-XX2--|

GUITAR 2 (palm muted)
E-------------------------------------------------|
B-------------------------------------------------|
G----7------------------11------------------------|
D----7-X16--------------11-X-16-------------------|
A----5-------------------9------------------------|
E-------------------------------------------------|
Eiwar, Eiwar, take an arrow from the sun

GUITAR 1  (DISTORTION)
E-------------------------------------------------|
B-------------------------------------------------|
G--7--XX7-XX7XX7-XX7-XX7--------------------------|
D--7--XX7-XX7XX7-XX7-XX7-XX4--XX4-XX4XX4-XX4-XX4--|
A--5--XX5-XX5XX5-XX5-XX5-XX4--XX4-XX4XX4-XX4-XX4--|
E------------------------XX2--XX2-XX2XX2-XX2-XX2--|

GUITAR 2 (palm muted)
E-------------------------------------------------|
B-------------------------------------------------|
G----7------------------11------------------------|
D----7-X16--------------11-X-16-------------------|
A----5-------------------9------------------------|
E-------------------------------------------------|
Abaris, pilgrim from the regions of darkness

*VERSE*
GUITAR 1   (DISTORTION)
E-------------------------------------------------|
B-------------------------------------------------|
G-------------------------------------------------|
D-pm-4444--4-pm-7777--7-pm-0000--0--pm-9999--9----|
A----4444--4----7777--7----0000--0-----9999--9----|
E----2222--2----5555--5----2222--2-----7777--7----|
When you catch the sun youll ride a beam

E-------------------------------------------------|
B-------------------------------------------------|
G-------------------------------------------------|
D-pm-4444--4-pm-7777--7-pm-9999--9--pm-5555--5----|
A----4444--4----7777--7----9999--9-----5555--5----|
E----2222--2----5555--5----7777--7-----3333--3----|
All across the world, in every place

E-------------------------------------------------|
B-------------------------------------------------|
G-------------------------------------------------|
D-pm-4444--4-pm-7777--7-pm-0000--0--pm-9999--9----|
A----4444--4----7777--7----0000--0-----9999--9----|
E----2222--2----5555--5----2222--2-----7777--7----|
Like Abaris did, he took a spark

E-------------------------------------------------|
B-------------------------------------------------|
G-------------------------------------------------|
D-pm-4444--4-pm-7777--7-pm-9999--9--pm-5555--5----|
A----4444--4----7777--7----9999--9-----5555--5----|
E----2222--2----5555--5----7777--7-----3333--3----|
As a riding broom: a magic wand

GUITAR 1   (palm muted) (DISTORTION)
E-------------------------------------------------|
B-------------------------------------------------|
G--------------3333------------------3333---------|
D----44444-----3333--------44444-----3333---------|
A----44444-----1111-0000---44444-----1111-0000----|
E----22222-320------0000---22222-320------0000----|

GUITAR 1   (palm muted)  (DISTORTION)
E-------------------------------------------------|
B-------------------------------------------------|
G--------------3333------------------3333---------|
D----44444-----3333--------44444-----3333---------|
A----44444-----1111-0000---44444-----1111-0000----|
E----22222-320------0000---22222-320------0000----|

GUITAR 2 (tapping)  (DISTORTION)
E-18-18-18-18-18-18-18-18-18-18-18-18-18-18-18-18-|
B-------------------------------------------------|
G-------------------------------------------------|
D-------------------------------------------------|
A-------------------------------------------------|
E-------------------------------------------------|

CHORUS(Clean)
E-----xx-7-7-----xx-7-7-----xx-7-7-----xx-7-7-----|
B-----xx-8-8-----xx-7-7-----xx-8-8-----xx-7-7-----|
G-----xx-9-9-----xx-8-8-----xx-9-9-----xx-8-8-----|
D-----xx-9-9-----xx-9-9-----xx-9-9-----xx-9-9-----|
A-----xx-7-7-----xx-9-9-----xx-7-7-----xx-9-9-----|
E-----xx-x-x-----xx-7-7-----xx-x-x-----xx-7-7-----|
Arrows from the sun, will penetrate the human mind

E-----xx-7-7-----xx-7-7-----xx-5-5-----xx-2-2-----|
B-----xx-8-8-----xx-7-7-----xx-5-5-----xx-2-2-----|
G-----xx-9-9-----xx-8-8-----xx-6-6-----xx-3-3-----|
D-----xx-9-9-----xx-9-9-----xx-7-7-----xx-4-4-----|
A-----xx-7-7-----xx-9-9-----xx-7-7-----xx-4-4-----|
E-----xx-x-x-----xx-7-7-----xx-5-5-----xx-2-2-----|
Sophia is born when we catch one of these

E-----xx-7-7-----xx-7-7-----xx-7-7-----xx-7-7-----|
B-----xx-8-8-----xx-7-7-----xx-8-8-----xx-7-7-----|
G-----xx-9-9-----xx-8-8-----xx-9-9-----xx-8-8-----|
D-----xx-9-9-----xx-9-9-----xx-9-9-----xx-9-9-----|
A-----xx-7-7-----xx-9-9-----xx-7-7-----xx-9-9-----|
E-----xx-x-x-----xx-7-7-----xx-x-x-----xx-7-7-----|
Arrows from the sun they burn the soul and make us see

E-----xx-7-7-----xx-7-7-----xx-5-5-----xx-2-2-----|
B-----xx-8-8-----xx-7-7-----xx-5-5-----xx-2-2-----|
G-----xx-9-9-----xx-8-8-----xx-6-6-----xx-3-3-----|
D-----xx-9-9-----xx-9-9-----xx-7-7-----xx-4-4-----|
A-----xx-7-7-----xx-9-9-----xx-7-7-----xx-4-4-----|
E-----xx-x-x-----xx-7-7-----xx-5-5-----xx-2-2-----|
Deep inside the maze: the Psyche, the soul

GUITAR 1
E----0----------7-----------0-----------7---------|
B----5-X12------0-X12-------5-X12-------0-X12-----|
G-------------------------------------------------|
D-------------------------------------------------|
A-------------------------------------------------|
E-------------------------------------------------|

GUITAR 2
E--12-14-15-14-12-15-14------12-14-15-14-12-------|
B------------------------------------------13-12--|
G-------------------------------------------------|
D-------------------------------------------------|
A-------------------------------------------------|
E-------------------------------------------------|
An arrow form the sun is like a sceptre in you hand

GUITAR 1
E----0----------7-----------0-----------7---------|
B----5-X12------0-X12-------5-X12-------0-X12-----|
G-------------------------------------------------|
D-------------------------------------------------|
A-------------------------------------------------|
E-------------------------------------------------|

GUITAR 2
E--12-14-15-14-12-15-14------12-14-15-14-12-------|
B------------------------------------------15-14--|
G-------------------------------------------------|
D-------------------------------------------------|
A-------------------------------------------------|
E-------------------------------------------------|
A key to time and space, to journeys within

GUITAR 1
E----0----------7-----------0-----------7---------|
B----5-X12------0-X12-------5-X12-------0-X12-----|
G-------------------------------------------------|
D-------------------------------------------------|
A-------------------------------------------------|
E-------------------------------------------------|

GUITAR 2
E--12-14-15-14-12-15-14------12-14-15-14-12-------|
B------------------------------------------13-12--|
G-------------------------------------------------|
D-------------------------------------------------|
A-------------------------------------------------|
E-------------------------------------------------|
Arrows from the sun will open up your beating heart

GUITAR 1
E----0----------7-----------0-----------7---------|
B----5-X12------0-X12-------5-X12-------0-X12-----|
G-------------------------------------------------|
D-------------------------------------------------|
A-------------------------------------------------|
E-------------------------------------------------|

GUITAR 2
E--12-14-15-14-12-15-14------12-14-15-14-12-------|
B------------------------------------------15-14--|
G-------------------------------------------------|
D-------------------------------------------------|
A-------------------------------------------------|
E-------------------------------------------------|
Sophia will shine when they hiy your soul

GUITAR 1  (DISTORTION)
E---------------------------------------------------------|
B---------------------------------------------------------|
G---------------------------------------------------------|
D-pm-777777-9---pm-777777-9---pm-777777-9---pm-777777-9---|
A----777777-9------777777-9------777777-9------777777-9---|
E----555555-7------555555-7------555555-7------555555-7---|

GUITAR 2
E---------------------------------------------------------|
B---------------------------------------------------------|
G-6/7-6------6-6-7/9-7-6--6-6-6/7-6------6-6-7/9-7-6--6-6-|
D------7-7/9--9---------9--9-------7-7/9--9---------9--9--|
A---------------------------------------------------------|
E---------------------------------------------------------|

GUITAR 1  (DISTORTION)
E-------------------------------------------------|
B-------------------------------------------------|
G--7--XX7-XX7XX7-XX7-XX7--------------------------|
D--7--XX7-XX7XX7-XX7-XX7-XX4--XX4-XX4XX4-XX4-XX4--|
A--5--XX5-XX5XX5-XX5-XX5-XX4--XX4-XX4XX4-XX4-XX4--|
E------------------------XX2--XX2-XX2XX2-XX2-XX2--|

GUITAR 2 (palm muted)
E-------------------------------------------------|
B-------------------------------------------------|
G----7------------------11------------------------|
D----7-X16--------------11-X-16-------------------|
A----5-------------------9------------------------|
E-------------------------------------------------|
Eiwar, Eiwar, take an arrow from the sun

GUITAR 1  (DISTORTION)
E-------------------------------------------------|
B-------------------------------------------------|
G--7--XX7-XX7XX7-XX7-XX7--------------------------|
D--7--XX7-XX7XX7-XX7-XX7-XX4--XX4-XX4XX4-XX4-XX4--|
A--5--XX5-XX5XX5-XX5-XX5-XX4--XX4-XX4XX4-XX4-XX4--|
E------------------------XX2--XX2-XX2XX2-XX2-XX2--|

GUITAR 2 (palm muted)
E-------------------------------------------------|
B-------------------------------------------------|
G----7------------------11------------------------|
D----7-X16--------------11-X-16-------------------|
A----5-------------------9------------------------|
E-------------------------------------------------|
Abaris, pilgrim form the regions of darkness

GUITAR 1  (DISTORTION)
E-------------------------------------------------|
B-------------------------------------------------|
G--7--XX7-XX7XX7-XX7-XX7--------------------------|
D--7--XX7-XX7XX7-XX7-XX7-XX4--XX4-XX4XX4-XX4-XX4--|
A--5--XX5-XX5XX5-XX5-XX5-XX4--XX4-XX4XX4-XX4-XX4--|
E------------------------XX2--XX2-XX2XX2-XX2-XX2--|

GUITAR 2 (palm muted)
E-------------------------------------------------|
B-------------------------------------------------|
G----7------------------11------------------------|
D----7-X16--------------11-X-16-------------------|
A----5-------------------9------------------------|
E-------------------------------------------------|
Eiwar, Eiwar, bend the bow now and shoot now

GUITAR 1  (DISTORTION)
E-------------------------------------------------|
B-------------------------------------------------|
G--7--XX7-XX7XX7-XX7-XX7--------------------------|
D--7--XX7-XX7XX7-XX7-XX7-XX4--XX4-XX4XX4-XX4-XX4--|
A--5--XX5-XX5XX5-XX5-XX5-XX4--XX4-XX4XX4-XX4-XX4--|
E------------------------XX2--XX2-XX2XX2-XX2-XX2--|

GUITAR 2 (palm muted)
E-------------------------------------------------|
B-------------------------------------------------|
G----7------------------11------------------------|
D----7-X16--------------11-X-16-------------------|
A----5-------------------9------------------------|
E-------------------------------------------------|
Abaris, bowman, shoot an arrow from the sun

OUTRO
E-------------------------------------------------|
B-------------------------------------------------|
G-------------------------------------------------| x2
D-pm-0---0----0-0---0----0--4---4----4-4---4----4-|
A-pm--0---0--0---0---0--0----4---4--4---4---4--4--|
E-pm---2---2------2---2-------2---2------2---2----|

ĂŽnscrie-te la newsletter


Join the ranks ! LIKE us on Facebook