Seven Secrets Of The Seven Sphinx Bass Tab - Therion




Band:Therion
Song: Seven secrets of the sphinx
Album: Deggial
Tab by: megatherion (nedved)

Intro/verse
Riff1
------------------------|
------------------------|
------------------------|
-3-3-3-3-4-3-1-3--------| repeat 8 times

riff2
------------------------|
------------------------|
-3-3-3-3-4-3-1-3--------|
------------------------| repeat 4 times then the first riff 4 times

Pre chorus

-------------------------------------|
-------------------------15-14-13-12-|
-13-13-13-13-13-13-13-13-------------|
-------------------------------------|

-------------------------------------|
-------------------------15-14-13-12-|
-12-12-12-12-12-12-12-12-------------|
-------------------------------------|

Chorus/no bass

Ending

-----------------------------------|
--10-10----------------------------|
--------7-7-7-4-4-4-3-3-3----------|
-----------------------------------|

-----------------------------------|
--10-10----------------------------|
--------7-7-7-3-5-3-5--------------|
-----------------------------------|

And thats all!! ( vivan los barba negras)

Estructure

Riff1
Riff2
Riff1
Pre chorus
Chorus
Pre chorus
Chorus
Riff1
Riff2
Riff1
Pre Chorus
Chorus
Pre Chorus
Chorus
Ending

ĂŽnscrie-te la newsletter


Join the ranks ! LIKE us on Facebook