Son Of The Sun Intro Tab - Therion






e------------------------------------------7-5-4----4-----------|
a----5-4--5-4-------5-4-5-4-----5-4-5-4-----------7---7-5-4-----|
g--6----------6--4----------6-6---------6-------------------6---|
D---------------------------------------------------------------|
A---------------------------------------------------------------|
E---------------------------------------------------------------|


e----------------------------------------------------------------|
h--5-4-5-4-------5-4-5-4-----------------------------------------|
g----------6-4-6---------6-4-6---6-------------------------------|
D------------------------------7---6-7-4-6-----------------------|
A------------------------------------------7-4-------------------|
E----------------------------------------------------------------|


This is not the right tuning but you can still play it like this if you dont want to 
the tuning! i was too lazy to change it so i figured the intro out for the normal tuning!






Like us on Facebook