Museum Of Idiots Bass Tab - They Might Be Giants






-----------------------------------------------------------------------------
     Museum of idiots - They Might be giants
-----------------------------------------------------------------------------

Tabbed By : Chris (w00t)
e-mail: SomethingsRandom@aol.com

Alright This song is called "museum of idiots" its off of their..newer cd "the spine". 
intro Is a nice little bass riff.  At times throughout its mainly just the brass stuff so 
sometiems dont play. so here goes.
| *  ring
| h  hammer-on
| p  pull-off


Tuning:EADG

    Intro solo
G|-------0---2-4*--0-2--------|
D|-0---2---4----4*----2*------|
A|-----------------------0----|
E|----------------------------|

Main Riffs
G|-----0*-------------0h2p0---------------0---2-4--0-2*-----|
D|-0-2----4-------0-2-------4--------0--2---4----4-----2----|
A|----------------------------------------------------------|
E|----------------------------------------------------------|

Brige thing
Im not sure about this but it kind fits
G|-2-2----4--2-----------------|
D|-----0-------0---------------|
A|-----------------------------|
E|-----------------------------|
"If You and  i had any brains we wouldnt be in this place"


Most of the time its just basically the main three riffs over
Well thats it....i think its correct...whatever..sounds good while playing....any 
suggestions, smart remarks id gladly take them.                   happy bassing
=============================================================================

ĂŽnscrie-te la newsletter


Like us on Facebook