An Ode To Maybe Bass Tab - Third Eye Blind






An Ode To Maybe
This is just how I play it, I think it sounds cool like this.
I don't think its perfect, comments appreciated


First Verse
|---------------------------------------|
|---------------------------------------|
|---2-33--------2-33--------2-33-xx333~-|  3x 
|--------------3-----------3------------|
then
|---------------------------------------|
|---------------------------------------|
|---2-33--------2-33--------2-33-33-3053| 
|--------------3-----------3------------|

Chorus 2x
|--------------------------------------|
|--------------------------------------|
|------3----------3-------5-3----------|
|-5-55--1111-5-55--1111-5----111-5-3-1-|

Second Verse
|---------------------------------------|
|---------------------------------------|
|---2-33--------2-33--------2-33-xx333~-|  2x 
|--------------3-----------3------------|

break for guitar and drum part, then
|----------------------------------|
|----------------------------------|
|---3--------3---------3-----------|
|-55--1111-55--1111-55--1111-5-3-1-|

|----------------------------------|
|----------------------------------|
|---3--------3-------5-3-----------|
|-55--1111-55--1111-5---111--5-3-1-|

then another chorus, or what ever you want to call it
|---------------------------------------|
|---------------------------------------|
|---2-33--------2-33--------2-33-xx333~-|  2x 
|--------------3-----------3------------|

then the final verse
|--------------------------------------|
|--------------------------------------|
|------3----------3-------5-3----------| 2x
|-5-55--1111-5-55--1111-5----111-5-3-1-|

to finish ring out on 
|----|
|----|
|-3~-|
|----|

hope ya like it, comment please!






Like us on Facebook