Anything Acoustic Tab - Third Eye Blind






Intro

|---0-------------3--------0--------3----|
|--1--1-1p0-----3--------1-------3-------|
|----------------------------------------|
|-2--------------------2-----------------|
|-------------3---------------3----------|
|----------------------------------------|


Verse
|------0-------0-------3------3------|
|----1--1----1---1---3--3---3---3----|
|------------------------------------|
|------------------------------------|
|--0------0--------3------3----------|
|------------------------------------|

Chorus
|-------3-------3-------3------3-----|
|-----3---3---3--3----3--3----3-3----|
|------------------------------------|
|------------------------------------|
|-2---------2-------3------3---------|
|------------------------------------|

Bridge/Chord bit near end
    
   x8    x8
|--3-----3-------|Play down then up, 4x each
|--3-----3-------|
|--0-----0-------|
|--x-----x-------|
|--2-----3-------|
|----------------|

Outro
|---0-------------3-----------|
|--1--1-1p0-----3-3-----------|
|-----------------0-----------|
|-2---------------------------|
|-------------3---------------|
|-----------------------------|


Basically Play around with the chords below, as I cant really tab that well.


|--0----3---3-----------------|
|--1----3---3-----------------|
|--2----0---0-----------------|
|--2----2---x-----------------|
|--0----3---2-----------------|
|-----------------------------|






Like us on Facebook