Freshmen Tab - Third Eye Blind






Song: Freshmen
Artist: Third Eye Blind
Tabber: Garte

I was looking all over for this tab and I couldnt find it anywhere so I decided to 
it out and tab it for all those people like me.

Intro/Verse/Chorus

--------------------------5-------------------------------------------------|
---------7------------------------------5-4---------------------------------|
-----5-----5---5-------------------6-------------------6--------------------|
---5---5-----5--------7----------6---6--------------7-----------------------|
-7------------------7---7------4--------------7---7--7----------------------|
------------------5-------------------------7---5---------------------------|

Bridge

-----------------------------------------------------------------------|
------------------------2---------------------------2------------------|
-----6-------4------2-----------6-------4-------2---------Repeat-------|
---6---6---4--4---2---2-------6-------4-------2---2--------------------|
-4-------2------0-----------4-----4-2-----2-0--------------------------|
-----------------------------------------------------------------------|


Lead Parts


Intro/After Chorus

----------------------------------------------------------------------------|
----------------------------------------------------------------------------|
-----7/9--------------------------7/6---------------------------------------|
-7/9--------------------------7/9-------------------------------------------|
----------------------------------------------------------------------------|
----------------------------------------------------------------------------|

Bridge

----------------------------------------------------------------------------|
----------------------------------------------------------------------------|
-7p6h7-7p6h7-7p6h7-7/9/7-6h7------------------------------------------------|
----------------------------------------------------------------------------|
----------------------------------------------------------------------------|
----------------------------------------------------------------------------|

2nd Chorus

-----------------------------------------------------------------------------|
-----------------------------------------------------------------------------|
-9-------6-------------------------------------------------------------------|
-9---7---6---9--7------------------------------------------------------------|
-7---7---4---9--7------------------------------------------------------------|
-----5-------7--5------------------------------------------------------------|

Interlude

----------------------------------------------------------------------------|
----------------------------------------------------------------------------|
--------9-------------------------------------------------------------------|
--6--7--9--9----------------------------------------------------------------|
--6--7--7--9----------------------------------------------------------------|
--4--5-----7----------------------------------------------------------------|


This is my first tab and I dont even like Third Eye Blind, I just had the song stuck in 
head.  The bridge is my own variation, I think it sounds better than what it is, I just 
the second part.  Rock on.






Like us on Facebook