Graduate Bass Tab - Third Eye Blind






BAND:3RD EYE BLIND
SONG:GRADUATE

eric baloney bell!!

RIFF PLAYED THROUGHOUT THE SONG
G|----------------------------------------------|
D|----------------------------------------------|
A|---5---5---5---5-----------5---5---5---5------|
E|-3---3---3---3---3-5-3---3---3---3---3---3-5-3|

           CHOURS (ALMOST)
G|--------------------------------|
D|--------------------------------|
A|----55-33-55-11----55-33-55-11--|
E|3-5-----------------------------|

HAVE FUN!!!!(it might be wrong in some parts, figure it out for
yourself)
Qs or comments or if ya just feel like screwi'n around
ibell@pacbell.net






Like us on Facebook