Graduate Tab - Third Eye Blind






#----------------------------------PLEASE NOTE---------------------------------#
#This file is the author's own work and represents their interpretation of the #
#song. You may only use this file for private study, scholarship, or research. #
#------------------------------------------------------------------------------#

From:   markriggs@mindless.com [kram__@hotmail.com]
Sent:   Saturday, December 13, 1997 9:01 PM

================================================
"Graduate"
by Third Eye Blind
CD: Third Eye Blind
Transcribed: Mark Riggs 
================================================

**Tuning**
Drop D (DADGBE)


INTRO/CHORUS:
e|------------------------|
B|------------------------|
G|--7p5-7---5h7p5-7-------|
D|--7p5-7---5h7p5-7-------|
A|----------- ------5--7--|
D|------------------------|


SOLO:
e|--------14--16p14-16-16p14-----|---------14-16p14-16-16p14---------|
B|--12-15--------------------15--|--12--15-------------------15------|
G|-------------------------------|-----------------------------------|
D|-------------------------------|-------------------------------7/--|
A|-------------------------------|-------------------------------7/--|
D|-------------------------------|-------------------------------7/--|

e|-------14-16p14-16-16p14-------------------------|
B|-12-15-------------------15/17--17-17-17-17-17/--|
G|-------------------------------------------------|
D|-------------------------------------------------|
A|-------------------------------------------------|
D|-------------------------------------------------|


BRIDGE:
e|------------------------------|      |-----|
B|------------------------------|      |-----|
G|o--7-7-7






Like us on Facebook