Hows It Going To Be (ver2) Bass Tab - Third Eye Blind






Third Eye Blind
Hows It Going To Be

standard tuning

intro- :22
------------------------------------------------------------------|
------------------------------------------------------------------|
-----------------3-3-1-1----0-1-3----------------3-3-1-1----------|
-131-1-----0-1-----------------------1-----0-1---------------61-|

verse 1- :35
--------------------------------------------------------------------|
---------------------------------------------3----------------------|
--------------3-3-1-1----0-1-3-------------3-----3-3-5-1----0-1-3---|
-1--1----0-1-----------------------1--1-----------------------------|

--------------------------------------------------------------------|
---------3---3---------------------------3-3-5-3--------------------|
-------3---3-----3-3-1-1----3-1-------------------3-3-5-1---1-1-3---|
-1--1---------------------------3--1--1-----------------------------|

chorus 1- :59
-----------------------------------------------------------------------|
----5------------------------------------------------------------------|
------------------8-8--------------------------------------------------|
-3-------0-3----------8-8----------------3-------0-3---5-5-6-6----6-8--|

--------------------------------------------------------------------------|
----5------------------------------------83------------------------------|
------------------8-8-10------------8-10------------------------------/13-|
-3-------0-3-------------8-----8-10-----------3------0-3---5-5-6-6--------|

preverse- 1:23
-------------------------------------------------------------------|
--------------------------------------3-3-5-3----------------------|
--------------3-3-1-1----3-1-------------------3-3-5-1----3-1------|
-1--1----0-1-----------------3--1--1--------------------------3----|

verse 2- 1:35
-------------------------------------------------------------------------|
------------------------------------------3---3-------------------1------|
--------------3-3-1-1----0-1-3----------3---3-----3-3-5-1---0-1-3--------|
-1--1----0-1----------------------1--1------------------------------131-|

-------------------------------------------------------------------------|
----------------------------------3-3-5-3--2-2-3-------------------------|
----------3-3-1-1----3-1-------------------------1---0-1-----------------|
-1--1--------------------3--1--1-----------------------------------------|

chorus 2- 1:59
-----------------------------------------------------------------------|
----5------------------------------------------------------------------|
------------------8-8--------------------------------------------------|
-3-------0-3----------8-8---7-8-10-------3-------0-3---5-5-6-6---6-6-8-|

--------------------------------------------------------------------------|
----5------------------------------------83------------------------------|
------------------8-8-10------------8-10------------------------------/13-|
-3-------0-3-------------8-----8-10-----------3------0-3---5-5-6-6--------|

pre-bridge- 2:23
------------------------------------------|
----3-------------------------------------|
----------------3-3-1-1---0-1-------------|
-1-------0-1-1----------------------------|

bridge- 2:29
---------------------------------------------------------5---5------|
--------------------------------------------------------------------|
-----------------1-1-1-1-1-1-1-1-----------------3-3-3-3---3---3----|
-3-3-3-3-3-3-3-3-----------------1-1-1-1-1-1-1-1--------------------|

----------------------------------|
----------------------------------|
----------------------------------|
-3-3-3-3-3-3-3-3-6-------6/131---|

heavy verse- 2:47
-----------------------------------------------------------------|
-----------------------------------------------------------------|
--------------3-3-1-1---1-0-1----------------3-3-5-1----1-1------|
-1--1----0-1--------------------1--1----0-1----------------------|

----------------------------------------------------------------|
------------------------------1---------------------------------|
--------------3-3-1-1---0-1-3-----------------3-3-5-1----0-1----|
-1--1----0-1--------------------131--1----1--------------------|

bridge 2- 3:10
---------------------------------------------------------5-3-2------------|
---------------------------------------------------------------5-3-2------|
-----------------1-1-1-1-1-1-1-1-----------------3-3-3-3-------------5-3--|
-3-3-3-3-3-3-3-3-----------------1-1-1-1-1-1-1-1--------------------------|

----------------------------------|
----------------------------------|
----------------------------------|
-3-3-3-3-3-3-3-3-6----------------|

outro- 3:28
---------------------------------------------------------------------|
--------------------------------------------3-3-5-3--2-2-3-----------|
--------------3-3-1-1---1-1-0------------------------------1----1----|
-1--1----0-1-------------------1--1----0-1---------------------------|

---------------------------------------------------------------------|
---------3---3---------------------------3-3-5-3--2-2-3-----------3--|
-------3---3----3-3-1-1---0-1-0-------------------------1------------|
-1--1---------------------------3--1--1------------------------------|

there it is...great song to play and fun to mess around with the fills
enjoy






Like us on Facebook