Hows It Going To Be Bass Tab - Third Eye Blind






 Verse x6
G---------------------------------
D---------------------------------
A--------3-3-1-1-1-1--------------
E-1-1-1-1-------------------------

 Chorus x2
G----------------------------------------
D---------3-3----------------------------
A-------------3-3-3-3-----------0-0-1-1--
E-3-3-3-3--------------3-3-3-3-----------

 Verse x6
G---------------------------------
D---------------------------------
A--------3-3-1-1-1-1--------------
E-1-1-1-1-------------------------

 Chorus x2
G----------------------------------------
D---------3-3----------------------------
A-------------3-3-3-3-----------0-0-1-1--
E-3-3-3-3--------------3-3-3-3-----------

 Verse x1
G---------------------------------
D---------------------------------
A--------3-3-1-1-1-1--------------
E-1-1-1-1-------------------------

 Interlude x1
G-------------------------------------------------------------
D-------------------------------------------------------------
A----------------1-1-1-1-1-1-1-1---------------3-3-3-3-3-3-3-3
E-3-3-3-3-3-3-3-3---------------1-1-1-1-1-1-1-1---------------

G---------------------
D---------------------
A----------------0-1--
E-3-3-3-3-3-3-3-3-----

 Verse x4
G---------------------------------
D---------------------------------
A--------3-3-1-1-1-1--------------
E-1-1-1-1-------------------------

 Interlude x1
G-------------------------------------------------------------
D-------------------------------------------------------------
A----------------1-1-1-1-1-1-1-1---------------3-3-3-3-3-3-3-3
E-3-3-3-3-3-3-3-3---------------1-1-1-1-1-1-1-1---------------

G---------------------
D---------------------
A----------------0-1--
E-3-3-3-3-3-3-3-3-----

 Verse until end
G---------------------------------
D---------------------------------
A--------3-3-1-1-1-1--------------
E-1-1-1-1-------------------------






Like us on Facebook