My Hit And Run (ver2) Tab - Third Eye Blind






Artist : Third Eye Blind
Song   : My Hit and Run
Album  : Out of the Vein
Tuning : (low to high) E A D G B D

Intro/Verse
D|--------12----11----11----11-12-11-----------12----11----11----11-9----9-|
B|-----10----10----10----10----------10-----10----10----10----10------10---|
G|-------------------------------------------------------------------------|
D|--------------------------------------^12--------------------------------|
A|-^12---------------------------------------------------------------------|
E|-------------------------------------------------------------------------|

D|--------12----11----11----11-12-11-----------12---------------^7----|
B|-----10----10----10----10----------10-----10----10-----^12-------^7-|
G|-^12-----------------------------------------------^12-----^7-------|
D|--------------------------------------^12---------------------------|
A|--------------------------------------------------------------------|
E|--------------------------------------------------------------------|

Pre-Chorus
D|----0--------0---------------------0-0-0-0-0-0-|
B|----0--------0---------------------0-0-0-0-0-0-|
G|----4--4-4---7-7---0-0-0-0-0-0-0-0-0-0-0-0-0-0-|
D|-5--5--5-5---7-7---2-2-2-2-2-2-2-2-2-2-2-2-2-2-|
A|-5--5--5-5-2-5-5-0-2-2-2-2-2-2-2-2-2-2-2-2-2-2-|
E|-3--3--3-3---------0-0-0-0-0-0-0-0-0-0-0-0-0-0-|

Chorus
D|-----0--0-0-0-0-0--2-0-2-2-2---2--2-2-2-2-2---2--2-2-|
B|-----0--0-0-2-2-2--3-2-2-3-2-3-5--2-3-2-3-2-3-5--2-3-|
G|-----4--4-4-2-2-2--2-2-2-2-2---2--2-2-2-2-2---2--2-2-|
D|-5-5-5--5-5-0-0-0--0-0-2-2-2---2--2-2-2-2-2---2--2-2-|
A|-5-5-5--5-5------------0-0-0---0--0-0-0-0-0---0--0-0-|
E|-3-3-3--3-3------------------------------------------|


Solo
D|------------------------------------------------|
B|------------------------------------------------|
G|------7-7--4-2-4/6-2--4p2p0---------------------|
D|-5----7-7----------2---------4p2p0---2-2---2--2-|
A|-5----5-5----------0---------------2-2-2---2--2-|
E|-3-----------------------------------0-0---0--0-|

End w/ this
D|-9------12-11----11-----12-11----|
B|---10---------10----10--------10-|
G|---------------------------------|
D|---------------------------------|
A|---------------------------------|
E----------------------------------|






Like us on Facebook