Narcolepsy Chords - Third Eye Blind






-------------------------------------------------------------------------------
     Narcolepsy - Third Eye Blind
-------------------------------------------------------------------------------

Tabbed by: Zero is great man
Tunning: EADGBe

[E1] [E2] [Am][Em]
e|---|---|---|---|
B|---|---|-1-|---|
G|-1-|-9-|-2-|-0-|
D|-2-|-9-|-2-|-2-|
A|-2-|-7-|-0-|-2-|
E|-0-|---|---|-0-|

Verse:
    E1            Am    E1                         Am
...I'm on a train,      but there's no one at the helm..."
         Em
Chorus: "But I can feel this narcolepsy slide, into another nightmare.

Solo:(That's why they call them solo's, cause your on your own)

Riff:"Keep awake, Keep awake, Keep awake"
   E2       Am         Am
e|-------------------------|
B|-----------1-1--x-x--1-1-|
G|-9--9------2-2--x-x--2-2-|
D|-9----7----2-2--x-x--2-2-|
A|-7------7--0-0--x-x--0-0-|
E|-------------------------|



===============================================================================






Like us on Facebook