Semi-charmed Life Bass Tab - Third Eye Blind






Bass Tab: Semi-Charmed Life
  Artist: Third Eye Blind
   Album: Third Eye Blind
  Author: Rattman (jratt0@hotmail.com)


Verse/Intro:

G---------------------------------------
D---------------------------------------
A---------1-1-1-1-1-----------1-1-1-1-1-
E-3-3-3-3-----------1-1-1-1-1-----------

Brdge:

G-------------------------
D-------------------------
A-3-3-3-3-5-5-5-5---------
E-----------------8-7-5-3-

Slide Part (does this during transitions, listen for it)

G--------
D--------
A--------
E-1/101-








Like us on Facebook