Slow Motion (ver2) Bass Tab - Third Eye Blind






Slow Motion by Third Eye Blind
Tabbed by Q (chckndmplngs) for Ultimate-Guitar.com

~=let ring
.=staccato

Note: In each phrase of the verse, there are minor differences, so pay attention!
      This is a slow song but there the rhythms make it interesting

Verse 
G|------------------------|------------------------|------------------------|------------------------|
D|------------------------|------------------------|------------------------|---------------------.--|
A|6~----------------------|6~----------------------|6~----------------------|6~-------------------1--|
E|------6~----4~----1~----|------6~----4~----1~----|------6~----4~----1~---6|------6~----4~----1~----|

Chorus
G|------------------------|------------------------|------------------------|
D|------------------------|------------------------|------------------------|
A|6-6~--------------------|6-6~--------------------|6-6~--------3~----------|
E|------6~----1~---------6|------6~----1~----4~----|-------6~---------------|

Post-Chorus
G|------------------------|
D|------------------------|
A|3~----------------------|
E|------------------------|

Verse 
G|-----------------------|-----------------------|-----------------------|------------------------|
D|-----------------------|---------------------5-|-----------------------|------------------------|
A|6~--6-----3------1-3~--|6~--6-----3------1-3~--|6~--6-----3------1-3~--|6-6~-6----3-.-----------|
E|-----6~----4~---------6|-----6~----4~----------|-----6~----4~----------|------6~----4-----------|
                                                                          ^ ^kinda quiet
Chorus
G|------------------------|------------------------|------------------------|
D|------------------------|------------------------|------------------------|
A|6-6~--------------------|6-6~--------------------|6-6~--------3~----------|
E|------6~----1~---------6|------6~----1~----4~----|-------6~--------------6|

Bridge
G|----------------------------------------------------------------------------------------------------------------|
D|----------------------------------------------------------------------------------------------------------------|
A|-------------3--3--3---------------------3--3--3--3--------------------------------------------3~--------3~---.-|
E|4----46--6--6-------4--4--14--4--46--6--6------------4--4--6--6--1--1--1--1--14--4--4--4--6~--------6~--------6-|

Verse 
G|-----------------------|-----------------------|-----------------------|
D|-----------------------|---------------------5-|-----------------------|
A|6~--------3------1-3~--|6~--6-----3------1-3~--|6~--6-----3-------.----|
E|-----6~----4~----------|-----6~----4~----------|-----6~----4~-----6----|

Chorus
G|------------------------|------------------------|------------------------|
D|------------------------|------------------------|------------------------|
A|6-6~--------------------|6-6~--------------------|6-6~--------3~----------|
E|------6~----1~---------6|------6~----1~----4~----|-------6~---------6~----|






Like us on Facebook