Tattoo Of The Sun Tab - Third Eye Blind






Artist: 3eb
Title: Tattoo of the Sun
Album: S-CL Single
Transcribed by:Steven Bradley


Intro *recurs in different spots throughout the song*
-----0--------------------0---------------------------------------------------|
---3---3---3------------3---3---3---------------------------------------------|
---------0---0---0h2----------2---2-2-0---------------------------------------|
-2--------------------0-------------------------------------------------------|
------------------------------------------------------------------------------|
------------------------------------------------------------------------------|
                                      repeat

Verse/Intro Chords                     Wah Part for Intro *recurs throughout*
--3------3----------------------------|------------------|--------------------|
--3------3----------------------------|------------------|--------------------|
--0------2----------------------------|------------------|--------------------|
--2------0----------------------------|-----5------5-5h7-|---5-7----5h7-5-----|
--------------------------------------|-5-7---5-7--------|-5------5-----------|
--------------------------------------|------------------|--------------------|
             






Like us on Facebook