Thanks A Lot Bass Tab - Third Eye Blind






guitar intro rest 4 measures,Bass entrance
 G|----------------------------------------------------------------------------------|
D|---2----0--------------2----0------------------------------------------------------|
A|-------------2-------------------2-------------------------------------------------|
E|------------------3-------------------3--------------------------------------------|

riff

G|-----------------------------------------------------------------------------------|
D|---2----0-0-------------------2----0-0---------------------------------------------|
A|---------------2-2------------------------2-2--------------------------------------|
E|-----------------------3-3-----------------------3-3-------------------------------|

G|-----------------------------------------------------------------------------------|
D|---2----0-0-------------------2----0-0---------------------------------------------|
A|---------------2-2------------------------2-2--------------------------------------|
E|-----------------------3-3-----------------------3-3-------------------------------|

Play bass entrance(no lyrics)

G|-----------------------------------------------------------------------------------|
D|---2----0-0-------------------2----0-0---------------------------------------------|
A|---------------2-2------------------------2-2--------------------------------------|
E|-----------------------3-3-----------------------3-3-------------------------------|

G|-----------------------------------------------------------------------------------|
D|---2----0-0-------------------2----0-0---------------------------------------------|
A|---------------2-2------------------------2-2--------------------------------------|
E|-----------------------3-3-----------------------3-3-------------------------------|

Chorus

G|---------------------------------------------------------------------------------|
D|---------------------------------------------------------------------------------|
A|---5--5--5--5-5------------------5--5--5--5-5------------------------------------|
E|----------------7-7-7---3-3-3-3---------------7-7-7---3-3-3-3--------------------|

G|-----------------------------------------------------------------------------------|
D|-----------------------------------------------------------------------------------|
A|---5--5--5--5-5-------------------5--5--5--5-5-------------------------------------|
E|----------------7-7-7---3-3-3-3----------------7-7-7--3----------------------------|

back to main riff

G|----------------------------------------------------------------------------------|
D|---2----0-0------------------2-----0-0--------------------------------------------|
A|---------------2-2-----------------------2-2--------------------------------------|
E|----------------------3-3------------------------3-3------------------------------|

G|---------------------------------------------------------------------------------|
D|---2----0-0------------------2-----0-0-------------------------------------------|
A|---------------2-2-----------------------2-2-------------------------------------|
E|----------------------3-3------------------------3-3-----------------------------|

Chorus
solo

G|---------------------------------------------------------------------------------|
D|---2---0-0-------------------2-----0-0-------------------------------------------|
A|--------------2-2-------------------------2-2------------------------------------|
E|----------------------3-3------------------------3-3-----------------------------|

G|---------------------------------------------------------------------------------|
D|---2---0-0-------------------2-----0-0-------------------------------------------|
A|--------------2-2-------------------------2-2------------------------------------|
E|----------------------3-3------------------------3-3-----------------------------|

"I'm the one for you"

G|---------------------------------------------------------------------------|
D|---2-2-22--0-0-00---2-2-22---0-0-00---2-2-22---0-0-00---2-2-22-0-0-00------|
A|---------------------------------------------------------------------------|
E|---------------------------------------------------------------------------|

 not sure if bass plays here, but this sounds okay
rest 2 measures

G|---------------------------------------------------------------------------|
D|---11--12-12---16-17-------------------------------------------------------|
A|---------------------------------------------------------------------------|
E|---------------------------------------------------------------------------|
                   ~ ~
G|---------------------------------------------------------------------------|
D|---11--12-12---16-17-------------------------------------------------------|
A|---------------------------------------------------------------------------|
E|---------------------------------------------------------------------------|
                  ~ ~
G|---------------------------------------------------------------------------|
D|---11--12-12---16-17-------------------------------------------------------|
A|---------------------------------------------------------------------------|
E|---------------------------------------------------------------------------|
                  ~ ~
Chorus, 8 measures, last measure is a little different, I'll write it out

G|---------------------------------------------------------------------------------|
D|---------------------------------------------------------------------------------|
A|---5--5--5--5-5----------2-2---2-3--5--------------------------------------------|
E|-----------------7-7-7-------3---------------------------------------------------|

5 measure section

G|--------------------------------------------------77-7-7-7------------------------|
D|-----------------------------0-2-3-2-0--------------------------------------------|
A|-----5-5-5-5-5-5-5-5-5-5-5-2-----------2-5-5-5-5------------5-5-5-5---------------|
E|----------------------------------------------------------------------------------|


Chorus 8 measures






Like us on Facebook