We Were Merely Freshman Intro Tab - Third Eye Blind






-------------------------------------------------------------------------------
    We Were Merely Freashman - Third Eye Blind
-------------------------------------------------------------------------------
Tabbed by: ilibrirocks
Email:

Tuning: normal

e|---------0-------2-------0---------------0---------5--------------------0----------|
B|-----0------0--------0-------------------------------------------------------------|
G|-----------------------------------2----------2-------------------6----------------|
D|--2----------------------------------------------------------6-------6-------------|
A|-------------------------------0------------------------4--------------------------|
E|-----------------------------------------------------------------------------------|

e|------------------------------------------------------------------------------------|
B|------------------------------2-----------------------------------------------------|
G|---------------------2-----------------------------------Repeat---------------------|
D|---------------2---------2----------------------------------------------------------|
A|--2------0--------------------------------------------------------------------------|
E|------------------------------------------------------------------------------------|

===============================================================================






Like us on Facebook