Beyond Recognition Tab - Threat Signal




song: Beyond Recognition
Band: Threat Signal

This is the latest demo from a wicked band known as Threat Signal. They're from
CA, my hometown. This is the majority of the song. I'll post the whole version later 
I
it. It's 99% correct and you'll have to figure out the rhythms for yourself, they're not 
hard. If you have any questions, comments or want to help me out by finishing the song
can email me at blind_reaper_205@hotmail.com

Drop D

E|-----------------------------------------------------|
B|-----------------------------------------------------|
G|-----------------------------------------------------|
D|---------------------------------------------5-3-0-2-|
A|---------5-------5-----------5-------5-------5-3-0-2-|
D|-0-0-0-------0-------0-0-0-------0-------0---5-3-0-2-|

|---------------------------|------------------------|
|---------------------------|------------------------|
|---------------------------|------------------------|
|-4-4---4---4---4---4---4-4-|-3-3---3--3--3--3---3-3-|
|-4-4---4---4---4---4---4-4-|-3-3---3--3--3--3---3-3-|
|-4-4---4---4---4---4---4-4-|-3-3---3--3--3--3---3-3-|

|--------------------------------------|
|--------------------------------------|
|--------------------------------------|
|--------------------------------------|
|--------------------------------------|
|-7/8/7--0--7--0--7/8/7--0--7--2-3-0-2-|

|---------------------------------------------------|
|---------------------------------------------------|
|---------------------------------------------------|
|---------------------------------------------------|
|---------------------------------------------------|
|-0--7/8/7--0--7--0--7/8/7-7/8/7--0--7/8/7--8--5--7-|

|--------------------------------------|
|--------------------------------------|
|--------------------------------------|
|--------------------------------------|
|--------------------------------------|
|-7/8/7--0--7--0--7/8/7--0--7--2-3-0-2-|

|----------------------------------------------------|
|----------------------------------------------------|
|----------------------------------------------------|
|----------------------------------------------------|
|----------------------------------------------------|
|-0--7/8/7--0--7--0--7/8/7-7/8/7--0--7/8/7--0--5/6/5-|

|-------|------------------------------------------------------|
|-------|------------------------------------------------------|
|-------|------------------------------------------------------|
|-------|--------------------------------------------5-3-0-2-0-|
|-5/6/5-|-------------5/6/5---9/10/9---5/6/5-5/6/5---5-3-0-2-0-|
|-------|-0-0-0-0-0-0-------0--------0---------------5-3-0-2-0-|

|-------------------------------------------------------------------------|
|-------------------------------------------------------------------------|
|-------------------------------------------------------------------------|
|-------------------------------------------------------------------------|
|-------------5/6/5---9/10/9---5/6/5-5/6/5--------------------------------|
|-0-0-0-0-0-0-------0--------0--------------7-5-7-7/8/7-5/7-0-2-3-0-0/1/0-|

|-----------------------------------------------------------------|
|-----------------------------------------------------------------|
|-----------------------------------------------------------------|
|-----------------------------------------------------5-7-8-7-5-7-|
|-5-----5---6---5---3/5---5---6---5-----6---3/5---5---------------|
|---0-0---0---0---0-----0---0---0---0-0---0-----0---0-------------|

|--------------------------------------------------------------------------|
|--------------------------------------------------------------------------|
|--------------------------------------------------------------------------|
|--------------------------------------------------------------------------|
|-12-----12---13---12---10/12---12---10---9----6/9--6---5---3/5---6---9/10-|
|----0-0----0----0----0-------0----0----0---0-----0---0---0-----0---0------|

|---------------|----------------------------------|
|---------------|----------------------------------|
|---------------|----------------------------------|
|-7--7--8--8--5-|-8/7--5/7--8/7--5/7--11/12/11/8/7-|
|-7--7--8--8--5-|----------------------------------|
|-7--7--8--8--5-|----------------------------------|

|------------------------------------------------------|-------|
|------------------------------------------------------|-------|
|------------------------------------------------------|-------|
|-11/12/11-12-14-12-11--11/12/11-12-14-12-11--8/7--5/7-|-8--10-|
|------------------------------------------------------|-8--10-|
|------------------------------------------------------|-8--10-|

|-----------|
|-----------|
|-----------|
|-0---5---8-|
|-0---5---8-|
|-0---5---8-|
ĂŽnscrie-te la newsletter


Join the ranks ! LIKE us on Facebook