When All Is Said And Done Solo Tab - Threat Signal




Drop C
Threat Signal
When All Is Said And Done   solo

i take no credit for this tab, this is such a kickass part of the song, and i felt i 
just put it up here, it is from the guitar pro of this song, so i give full credit to them  =]


4:14  4:30
|------13-------15-18-15--------------16-20-16---------|
|-----14-14----16-------16-----------18-------18s13----|
|----13----13s15----------15--------17-----------------|
|---15----------------------17-----18------------------|
|--16-------------------------18s20--------------------|
|------------------------------------------------------|

|-1513--131516-151311-15b--23-15b-131516p20h16p20h16----18s15-------------|
|-----16--------------------------------------------18-18----16-------11--|
|-----------------------------------------------------17-------15s12-13---|
|-------------------------------------------------------------------------|
|-------------------------------------------------------------------------|
|-------------------------------------------------------------------------|

|-1613----------1813-----1613--------13161315--1311-------1311-------|
|-----1613----------1613------161316---------------131211------131211|
|---------1513-------------------------------------------------------|
|--------------------------------------------------------------------|
|--------------------------------------------------------------------|
|--------------------------------------------------------------------|

|-13-11---------------------------------------|
|-------13-12-11-9-11-12-13-12-11-9-----------|
|---------------------------------------------|
|---------------------------------------------|
|---------------------------------------------|
|---------------------------------------------|

|-----------------------------------------------------|
|-9-6-8-9-8-6-11-9-8-13-9-11-13-11-9-11-13-14-11------|
|-----------------------------------------------------|
|-----------------------------------------------------|
|-----------------------------------------------------|
|-----------------------------------------------------|

|-----------------------------------------------------------|---let------|
|-14-13-11-9-13-11-9----11-9-------9---------------9-11-13--|---ring-----|
|--------------------12------12-10---12-10-9-10-12----------|----10------|
|-----------------------------------------------------------|-----x------|
|-----------------------------------------------------------|-----8------|
|-----------------------------------------------------------|------------|
ĂŽnscrie-te la newsletter


Join the ranks ! LIKE us on Facebook