Dust Is Our Face Tab - Tiamat






       TIAMAT - DUST IS OUR FACE
                  From the Album SKELETON SKELETRON
                      Version 1.0 - JANUARY 2001

Transcribed by: HARIS DURAKOVIC

For Questions, Comments, Newest Version, or Corrections contact
HARIS DURAKOVIC: at foreverlorn@gmx.de

Check Out Death Warp, With More Transcriptions On It:
 http://tiger.towson.edu/~dalvis1

Riff 1  Riff 2
|--------------------------------|-------------------------|
|--------------------------------|-------------------------|
|----------------2--2-2-2-5-5----|-------------------------|
|-2--5-5-5-2-2---2--2-2-2-5-5--3-|-2---5---7---3--2-3--2-3-|
|-2--5-5-5-2-2---0--0-0-0-3-3--3-|-2---5---7---3--2-3--2-3-|
|-0--3-3-3-0-0-----------------1-|-0---3---5---1--0-1--0-1-|

Refrain  Riff 3
|--------------------------------|--------------|
|--------------------------------|--------------|
|----------------2--2-2-2-7-7----|--------------|
|-2--5-5-5-2-2---2--2-2-2-5-5--3-|-5-6-5-2--5-6-|
|-2--5-5-5-2-2---0--0-0-0-3-3--3-|-5-6-5-2--5-6-|
|-0--3-3-3-0-0-----------------1-|-3-4-3-0--3-4-|

Check Out Death Warp, With More Transcriptions On It:
 http://tiger.towson.edu/~dalvis1

ĂŽnscrie-te la newsletter


Like us on Facebook