Dark Night Intro Tab - Tito And Tarantula






----------3--6b--3--------3------------3--6b--3-----------------------------
----6--3------------3--6---------6--3------------3--6-----------------------
-0-----------------------------0-----------------------h3^0-----------------
----------------------------------------------------------------------------
----------------------------------------------------------------------------
----------------------------------------------------------------------------

----------3--6b--3--------3-------------------------------------------------
----6--3------------3--6----------------------------------------------------
-0--------------------------------------------------------------------------
----------------------------------------------------------------------------
----------------------------------------------------------------------------
----------------------------------------------------------------------------

Repeat

Got any ideas on the rest pease help!






Like us on Facebook