In View Tab - Tragically Hip






Tabbed by:Luker17
Email:

Tuning:

e|--------------------------------------------------------------------------|
B|---9--7-------------------------------------------------------------------|
G|---------8--6-----6h8p6---------------------------------------------------|
D|---------------9--------9-------------------------------------------------|
A|--------------------------------------------------------------------------|
E|--------------------------------------------------------------------------|
  Verse           Listen for rhythm
e|--------------------------------------------------------------------------|
B|--------------------------------------------------------------------------|
G|-----2------4------1------------------------------------------------------|
D|-----2------4------2------------------------------------------------------|
A|-----0------2------2------------------------------------------------------|
E|--------------------------------------------------------------------------|
Chorus B      E   Listen for rhythm
e|-----7------0--------------------------------------------------------------|
B|-----7------0--------------------------------------------------------------|
G|-----8------1--------------------------------------------------------------|
D|-----9------2--------------------------------------------------------------|
A|-----9------2--------------------------------------------------------------|
E|-----7------0--------------------------------------------------------------|
 Bridge
e|---------------------------------------------------------------------------|
B|---------------------------------------------------------------------------|
G|----9--8--6--4----11--9--8--6----------------------------------------------|
D|----*--*--*--*----*--*---*--*----------------------------------------------|
A|----7--6--4--2----9--7---6--4----------------------------------------------|
E|---------------------------------------------------------------------------|






Like us on Facebook