Lonely End Of The Rink Tab - Tragically Hip






The Lonely End of the Rink
Tragically Hip


[INTRO] with loads of delay/reverb

e|----0-3h-5h--12~----0-3h-5h--10~----0--3h-5h--8~----7-8h-7p-0-----|
B|--------------------------------------------------------------3~~~|
G|------------------------------------------------------------------|
D|------------------------------------------------------------------|
A|------------------------------------------------------------------|
E|------------------------------------------------------------------|


[MAIN RIFF]

e|------------------------------------------------------------15~--|
B|--------13----15~-------13---12~-------13---15~-------13---------|
G|----14----14--------14---14--------14----14--------14----14------|
D|-----------------------------------------------------------------|
A|-----------------------------------------------------------------|
E|-----------------------------------------------------------------|







Like us on Facebook