New Maybe Intro Tab - Tragically Hip






(/) Slide Up  () Slide Down  (h) Hammer On  (p) Pull Off  (b) Bend (r) Release (v) Vibrato

E|--0-------------------7--------7-----------7--------|
B|--10--10--9--7--7--7-----7--5-----5--7--5-----5-----|
G|--9-------------------------------------------------|
D|----------------------------------------------------|
A|----------------------------------------------------|
E|----------------------------------------------------|

E|--0-------------------7---------------------------|
B|--10--10--9--7--7--7-----7--5--7--5--5--7---9--10-|
G|--9-----------------------------------------------|
D|--------------------------------------------------|
A|--------------------------------------------------|
E|--------------------------------------------------|






Like us on Facebook