Poets (ver2) Bass Tab - Tragically Hip






Bass Tab
Song: Poets
Artist: the tragically hip
Album: Phantom Power
email: cyberbassist@hotmail.com

Intro 
  C               
G|-----------------|
D|*---------------*| X4
A|*---------------*|
E|-8-8-8-8-8-8-8-8-|

Verse
   C                           Eb      F                           Eb   
G|-----------------|-----------------|-----------------|------------------|
D|*----------------|-----------------|-----------------|-----------------*| X4
A|*----------------|-----------6-6-6-|-8-8-8-8-8-8-8-8-|-8-8-8-8-8-6-6-6-*|
E|-8-8-8-8-8-8-8-8-|-8-8-8-8-8-------|-----------------|------------------|

chorus
   C             B Bb            Bb 
G|---------------------------------|
D|*-------------------------------*| X4
A|*-------------------------------*|
E|-8-8-8-8-8-8-8-7-6-6-6-6-6-6-6-7-|

Chorus 1:52 (fill inserted)

   Fill   C             Db D
G|-------|--------------------------------|
D|-------|--------------------------------|
A|-------|--------------------------------|
E|-5-6-7-|8-8-8-8-8-8-8-7-6-6-6-6-6-6-6-7-|

   C             Bb  Eb            Bb  F
G|-----------------|-----------------|-----------------|------------------|
D|*----------------|-----------------|-----------------|-----------------*| X2
A|*----------------|-6-6-6-6-6-6-6---|-8-8-8-8-8-8-8-8-|-----6-----6---6-*|
E|-8-8-8-8-8-8-8-6-|---------------6-|-----------------|-6-8---6-8---6----|


Interlude (same as chorus)

Ending

  C
G|-----|
D|-----|
A|-----|
E|--8~-|

All the parts are there, just figure out how to play the right sequence
EnJoY!
cyberbassist

Any question or comments: email me ;)






Like us on Facebook