Twist My Arm Bass Tab - Tragically Hip






song: Twist My Arm
band: The Tragically Hip
album: Road Apples


This is a great song to play! Easy, but funky. It's my favorite Hip song.


main             and sometimes...
|---------------|----------------|
|---------------|----------------|
|---------------|-3--------------|
|-3-5---0-3-5-5-|---5--0-3-5-5---|


chorus                                                x2
|-------------------------------------------------------|
|-------------------------------------------------------|
|-3-------------3------------5--------------------------|
|---5--0-3-5-5----5--0-3-5-5---5--0-3-5-5--3-5--0-3-5-5-|


"musical chairs..."
|-----------------| play that about 3 times
|-----------------| and then the main riff 
|-5-5-5-5-5-5-5-5-| once. Then play the whole
|-----------------| part again.


riff around the end
|-----------------|
|------5-3--------|
|-3-5------5-3-0--|
|-----------------|


play the main riff a few times here, and then play:

|---------------------------------------|
|------5-3------------------------------|
|-3-5------5-3-0------------------3-3-0-|
|---------------------------------------|


end riff
|----------------|
|------5-3-------|
|-3-5------5-3-0-|
|----------------|


That's about it. Long Live The Hip!!!!

Tab by Erin MacIntosh
pumpkinhead4ever@yahoo.com







Like us on Facebook