Christmas Cannon Rock Solo Tab - TRANS-SIBERIAN ORCHESTRA




E-|-12-9-10-12-9-10-12----------7-9-10-9-------9-----------------|
B-|----------------------7-9-10----------10-12--------7----------|
G-|--------------------9--------------------------7-9--9-7-9--7-9|
D-|--------------------------------------------11-----------11---|
A-|--------------------------------------------------------------|
E-|--------------------------------------------------------------|


E-|-------------------------------------------------------9-10-12|
B-|---7-------------------------7--7---7-9-10---7-9-10-12--------|
G-|-7--9-7------------------7-9--7---9--------9------------------|
D-|--------11-9-11-9-7-9-11--------------------------------------|
A-|--------------------------------------------------------------|
E-|--------------------------------------------------------------|

ĂŽnscrie-te la newsletter

Join the ranks ! LIKE us on Facebook