First Noel Tab - TRANS-SIBERIAN ORCHESTRA




       This is my first tab, it sounds good, so.


     e-2-0-----0-2-3-5-5-7-9-10-9-7-5-7-9-10-9-7-5-7-9-10-5-3-2------
     B-----3-3-------------------------------------------------------
     G---------------------------------------------------------------
     D---------------------------------------------------------------
     A---------------------------------------------------------------
     E---------------------------------------------------------------
                     Repeat 3x then


     e-2-0-----0-2-3-5-5-10-9-7-7-9-10-12-14-12-10-9-7-5-7-9-10-5-3-2
     b-----3-3-------------------------------------------------------
     g---------------------------------------------------------------
     d---------------------------------------------------------------
     a---------------------------------------------------------------
     e---------------------------------------------------------------

ĂŽnscrie-te la newsletter

Join the ranks ! LIKE us on Facebook