Vienna Tab - TRANS-SIBERIAN ORCHESTRA




Vienna, #8 on Beethoven's Last Night
Standard Tuning
(.23)
E-----------------------------------|
B-----------------------------------|
G-----------------------------------|
D---------------------2---2---2---2-|
A---------------------2---2---2---2-|
E-1111-1111-1111-1111-0-1-0-1-0-1-0-|
  *******************   *   *   *
At (.50) Repeat this

(1.40)
E---------------------------------------|
B---------------------------------------|
G---------------------5---5---5---5-----|
D-3-5-3-5-------------5-5-5-5-5-5-5-5-3-|
A-3-5-3-5-------------3-5-3-5-3-5-3-5-3-|
E-1-3-1-3-333-333-333---3---3---3---3-1-|
          ***********
(2.30)
E---------------------------------------|
B---------------------------------------|
G---------------------5-------5---------|
D---------------------5-5-5-5-5-5-5-5-3-|
A-3333-3333-3333-3333-3-5-5-5-3-5-5-5-3-|
E-1111-1111-1111-1111---3-3-3---3-3-3-1-|
  *******************
(3.06)
E-----------------------------------|
B-----------------------------------|
G-----------------------------------|
D---------------------2--2---2-----|
A---------------------2---2---2---2-|
E-1111-1111-1111-1111-0-1-0-1-0-1-0-|
  *******************   *   *   *

*=Palm Mute

-End

ĂŽnscrie-te la newsletter

Join the ranks ! LIKE us on Facebook