Who Is This Child Tab - TRANS-SIBERIAN ORCHESTRA




Who is This Child, #21 on Beethoven CD
Standard Tuning
(.47)
E-------------------------------|
B-------------------------------|
G-7---4---2-----------7---4---2-|
D-7---4-5-2-----------7---4-5-2-|
A-5-4-2-5-0-000-00000-5-4-2-5-0-|
E-------3-------------------3---|
            *********
(2.09)
E-------------------------------------------------------------|
B-------------------------------------------------------------|
G-------------------2-7---4---2-----------7---4---2-----------|
D-2222-2222-2222-22-2-7---4-5-2-----------7---4-5-2-----------|
A-0000-0000-0000-00-0-54-2-5-0-0000-0000-5-4-2-5-0-0000-0000-|
E---------------------------3-------------------3-------------|
  *****************             *********           *********
(2.54)             (3.12)                (4.04)
E---------------------------------------------|
B---------------------------------------------|
G-7-4---2-----------7---4---2-------------2-2-|
D-7-4-5-2-----------7---4-5-2-------------2-2-|
A-5-2-5-0-0000-0000-5-4-2-5-0-0000-0000---0-0-|
E-----3-------------------3-------------------|
          *********           *********

*=Palm Mute

-End

ĂŽnscrie-te la newsletter

Join the ranks ! LIKE us on Facebook