Anthem We Are The Fire Tab - Trivium






TRIVIUM - ANTHEM (WE ARE THE FIRE)
in case you havnt heard this copy and paste this link
...the countdown for detonation is over but they let you hear anthem (we are the fire)

this is roughly all i could figure out
Into
|-----------------------------------------------------------------------|
|-----------------------------------------------------------------------|
|-----9----10-----7---9-----4-5-4-2-----9----10-----4-4-----2-----------|
|-----10---10-----9---9-----5-5-5-2-----10---10-----5-5-----3-----------|
|-0-0----0----0-0---0---0-0---------0-0----0----0-0------------0-0---0--|
|------------------------------------------------------------------3----|
|
|
|-----------------------------------------------------------------------|
|-----------------------------------------------------------------------|
|-2---------------------------------2-----------------------------------|
|-2---------------------------------2---------------5----------------2--|
|-0---------------------------------0---------------5----------------0--|
|---------------------------------------------------3-------------------|


|-----------------------------------------------------------------------|
|-----------------------------------------------------------------------|
|-----9----10-----7---9-----4-5-4---------------------------------------|
|-----10---10-----9---9-----5-5-5--3--------------5---------------------|
|-0-0----0----0-0---0---0-0--------3--------------5---------------------|
|----------------------------------1--------------3---------------------|
|
|
|-----------------------------------------------------------------------|
|-----------------------------------------------------------------------|
|-----------------------------------------------------------------------|
|-2---------------------------------------------------------------------|
|-0-------------------------------3---------------5---------------------|
|---------------------------------1---------------3---------------------|


solo part
|----------|-3b-1h3p1---5-7b-5h7p5----------------------------------|
|----------|----------5------------5--------------------------8vvv--|
|--2*~~~~~-|---------------------------5-7-5-5h7p5--5h7p5-5-7-------|
|----------|--------------------------7-----------5------5----------|
|----------|--------------------------------------------------------|
|----------|--------------------------------------------------------|


Verse
|------|---------------------------------|------------|
|------|---------------------------------|------------|
|------|---------------------------------|------------|
|------|---------------------------------|------------|
|-7--5-|-3----5--75/7---------------7-5-|-3--7--2--9-|
|-5--3-|-1----3--53/5-5555555555555-5-3-|-1--5--0--7-|
Pre Chorus
|---------------------------------------------------|
|---------------------------------------------------|
|------5-5p4---------5-5p4--------5-5p4-------------|
|-2------------5------------2-----------4-4-4-7-7-7-|
|-0-0-0------0-3-3-3------0-0-0-0-------2-2-2-5-5-5-|
|---------------------------------------------------|
Chorus is same as intro

and thats all i got...sorry guys its not very good but it gives you a kind of idea so 
can work on it yourselves..






Like us on Facebook