Ascendancy (album) Tab - Trivium






-----------------------------------------------------------------------
        Ascendancy Album - Trivium
-----------------------------------------------------------------------
Tabbed by: Nuums aka. Oscar
Email: nuums_41@hotmail.com

Tuning: Drop D All the way


Hey, saw that no-one had posted any Trivium album tabs yet, so I thought I'd do it. I 
tabbed any of these myself, so

I'm just mixing together the best tabs of each song on the album.

The credit goes to:

Rain: bassest123
Pull Harder on the Strings of your Martyr: Gu1T@r_H3r0
Drowned and Torn Asunder: skotyb
Ascendancy: Freaking Out
A Gunshot to the Head of Trepidation: Haunted_Devil, solo: [Unregistered]
Like Light to Flies: [Unregistered]
Dying in your Arms: super_cheetham, solo: dagget
The Decieved: geetar_man0
Suffocating Sight: DFTSme
Departure: sam b
Decleration: Clownmite


                         -----------------------------
                         |           Rain            |
                         -----------------------------


Intro / Verse
|-------------------|-----------------------| -----------------------)
|-------------------|-----------------------|                        )
|-------------------|-----------------------|                        )
|-------------------|-----------------------|                        )
|-5---------6-3-----|-----------------------|                        )
|---0-0-0-0-----0-0-|-0-0-0-0-0-0-0-0-0-0-0-|                        )
                                                                    X4
|-------------------|-----------------------|                        )
|-------------------|-----------------------|                        )
|-------------------|-----------------------|                        )
|-----------5-4-----|-----------------------|                        )
|-5-----------------|-----------------------|                        )
|---0-0-0-0-----0-0-|-0-0-0-0-0-0-0-0-0-0-0-|------------------------)

|-------------------|--------------------|
|-------------------|--------------------|
|-------------------|--------------------|only play this bit on the 4th time
|-----------5-4-----|--------------------|
|-5-----------------|-6-8---8--6----5-6--|
|---0-0-0-0-----0-0-|-----0-------0------|

Repeat the verse another 4 times

Chorus (with no singing)
|------------------|------------------|------------------|------------------|
|-7--7s8-(8)---7-8-|-10--8---7---8----|-7--7s8-(8)---7-8-|-10--8---7---8----|
|------------------|------------------|------------------|------------------|
|-4--4s5-(5)---4-5-|--7--5---4---5----|-4--4s5-(5)---4-5-|--7--5---4---5----|
|------------------|------------------|------------------|------------------|
|------------------|------------------|------------------|------------------|

 Verse X4

Pre-Chorus Repeat Twice
Guitar 1
|-----------------|-------------------|----------------|------------------|
|-----------------|-------------------|----------------|------------------|
|-----------------|-------------------|----------------|------------------|
|-----------------|-------------------|----------------|------------------|
|-5-----3-----5---|-------8---7---5-7-|-------5-----7--|-----8---7---7h8--|
|---0-0---0-0---0-|--0--0---0---0-----|-8-8-8---8-8----|-5-5---5---5------|

Guitar 2
|-----------------|-------------------|----------------|------------------|
|-----------------|-------------------|----------------|------------------|
|-----------------|-------------------|-3--------------|------------------|
|-0---------------|-(0)---------------|-3--------------|-5----------------|
|-0---------------|-(0)---------------|-1--------------|-5----------------|
|-0---------------|-(0)---------------|----------------|-5----------------|


|-------------------|--------------------|
|-------------------|--------------------|
|-------------------|--------------------|
|-------------------|--------------------|
|-12-----10---------|-----12---13---12---|
|----8-8----8-8-8-8-|-8-8----8----8------|

|-------------------------|-------------------|
|-------------------------|-------------------|
|-------------------------|-------------------|
|-------------------------|-8-7-5---7---------|
|-12-------10-------------|-------6---10-6-5--|
|----10-10----10-10-10-10-|-------------------|


Chorus Repeat Twice
||-------------------|------------------|
||o-7--7s8-(8)---7-8-|-10--8---7---8----|
||-------------------|------------------|
||--4--4s5-(5)---4-5-|--7--5---4---5----|
||o------------------|------------------|
||-------------------|------------------|


|------------------|--------------------||
|-7--7s8-(8)---7-8-|-10--8---7---8-----o||
|------------------|--------------------||
|-4--4s5-(5)---4-5-|--7--5---4---5------||
|------------------|-------------------o||
|------------------|--------------------||

-----------------------------------------------------------------------------
       REPEAT EVERY THING ABOVE AGAIN EXEPT CHORUS WITH NO SINGING
----------------------------------------------------------------------------

Interlude

Guitar 1
|-----------|-------------||---------------|----------------||
|-----------|-------------||o--------------|---------------o||
|-10--------|-(10)--------||--10----5---3--|-7----14--12----||
|-----------|-------------||---------------|----------------||
|--8--------|--(8)--------||o--8----3---1--|-5----12--10---o||
|-----------|-------------||---------------|----------------||

Guitar 2
|-----------|-------------||---------------|----------------||
|-----------|-------------||o--------------|---------------o||
|--7--------|--(7)--------||---7----9--10--|-3----10---9----||
|-----------|-------------||---------------|----------------||
|--5--------|--(5)--------||o--5----7---8--|-1-----8---7---o||
|-----------|-------------||---------------|----------------||


Guitar1
|--------------------------------|------------------------------------------|
|--------------------13----------|------------------------------------------|
|----14----15-----15----15----12-|------14----15----------------------------|
|-------12----12-----------10----|---------12----12----15-14----17-15-------|
|--------------------------------|------------------13-------13-------13-17-|
|--------------------------------|------------------------------------------|

|----------------------------------|----------------------------------------|
|----------------------13----------|----------------------------------------|
|-----14----15------15----15----12-|----14----15----------------------------|
|--------12----12------------10----|-------12----12----15-14----17-15-------|
|----------------------------------|----------------13-------13-------13-17-|
|----------------------------------|----------------------------------------|

Guitar 2 second time only
|----------------------------------|----------------------------------------|
|----------------------------------|----------------------------------------|
|--7--------------9----10----------|-3--------------10-----------9----------|
|----------------------------------|----------------------------------------|
|--5--------------7-----8----------|-1---------------8-----------7----------|
|----------------------------------|----------------------------------------|


Guitar 2 When Singing starts
||-------------------------------------------|
||o------------------------------------------|
||-------------------------------------------|
||-------------------------------------------|
||o-0-0-0-0-------------0-0-0----------------|
||--0-0-0-0-------------0-0-0----------------|

|--------------------------------------------|
|-------------------------------------------o|
|--------------------------------------------|
|--------------------------------------------|
|-0-0-0-0--------------0--0--------0--0-----o|
|-0-0-0-0--------------0--0--------0--0------|


|-------------------------------------------|
|-------------------------------------------|
|-9-9-9-9-9-9-9-9-0-10-10-10-10-10----------|
|-------------------------------------------|
|-7-7-7-7-7-7-7-7-8-8-8-8-8-8-8-8-----------|
|-------------------------------------------|

|---------------------------------------------------|
|---------------------------------------------------|
|-12-12-12-12-12-12-12-12--14-14-14-14-14-14-14-14--|
|---------------------------------------------------|
|-10-10-10-10-10-10-10-10--12-12-12-12-12-12-12-12--|
----------------------------------------------------|


Guitar Solo
  N.C.
|----------------|-----------------|-------------|
|----------------|-----------------|-------------|
|-5pb7r5---------|-5pb7r5----------|--5-------5--|
|--------7-------|--------7--------|------7------|
|----------8-----|----------7--8---|-------------|
|----------------|-----------------|-------------|

|------------------------------------------------|
|-------------------10----------------13---------|
|------------------------------------------------|
|------------------------------------------------|
|------------------------------------------------|
|------------------------------------------------|

|-----------12----12b13---(12)-|-12r-12-------------------------------------|
|-13b15-13r----15--------------|-------15-----------------------------------|
|------------------------------|----------14--------------------------------|
|------------------------------|------------14-15-15b17--r15-14-12-15-14-17-|
|------------------------------|--------------------------------------------|
|------------------------------|--------------------------------------------|

|-------17-15-13------------------------------------|
|----------------17-15-13---------------------------|
|-------------------------16-14-13------------------|
|-15-19----------------------------16-14-13-15-19---|
|---------------------------------------------------|
|---------------------------------------------------|

|------------------------------------------|
|------------------------------------------|
|------------------------------------------|
|------------------------------------------|
|------------------------------------------|
|-0-0-0-0-0-0-0-0-1-0-0-0-0-0-0-0-0-0-1-0--|

|----------------------------------------------|
|----------------------------------------------|
|--------------------------------------------5-|
|------------------------------8-----------8---|
|----------------------5---6-----6-5---6-------|
|-0-0-0-0-0-0-0-0-1-0--------------------------|

End On

|----------|
|----------|
|----------|
|-0--------|
|-0--------|
|-0--------|


              -------------------------------------------------
              |   Pull Harder on the Strings of your Martyr   |
              -------------------------------------------------


Intro
Gtr.1 + 2
e||-----------------------------------------------------------------------||
B||-----------------------------------------------------------------------||
G||-----------------------------------------------------------------------||
D||-7---------------7-8---------------8-8----------------8-7--------------||
A||-5---------------5-5---------------5-6----------------6-7--------------||
D||---0000000000000-----0000000000000-----55555555555555-----777777777777-||
PM    .............     .............     ..............     ............

Gtr.1
e||-----------------|-----------------|-----------------|-----------------||
B||-----------------|-----------------|-----------------|-----------------||
G||-15-14-14-12-12--|-12--------------|-15-14-14-17-17--|-12-1214--------||
D||-x--x--x--x--x---|-x---------------|-x--x--x--x--x---|-x--x--x---------||
A||-13-12-12-10-10--|-10--------------|-13-12-12-15-15--|-10-1012--------||
D||-----------------|-----------------|-----------------|-----------------||

Gtr.2
e||-----------------|-----------------|-----------------|-----------------||
B||-----------------|-----------------|-----------------|-----------------||
G||-----------------|-----------------|-----------------|-----------------||
D||-----------------|-----------------|-----------------|-----------------||
A||-0-0-0-0-0-0-0-0-|-0-0-0-0-0-0-0-0-|-6-6-6-6-6-6-6-6-|-7-7-7-7-7-7-7-7-||
D||-0-0-0-0-0-0-0-0-|-0-0-0-0-0-0-0-0-|-5-5-5-5-5-5-5-5-|-7-7-7-7-7-7-7-7-||

Verse
Gtr.1 + 2
e||-----------------------------------------------------------------------||
B||-----------------------------------------------------------------------||
G||-----------------------------------------------------------------------||
D||-7---------------7-8---------------8-8----------------8-7--------------||
A||-5---------------5-5---------------5-6----------------6-7--------------||
D||---0000000000000-----0000000000000-----55555555555555-----777777777777-||
PM    .............     .............     ..............     ............

---

Pre Chorus
Gtr.1
e||----------------------------------------------||
B||----------------------------------------------||
G||----------14-14-14-14---------12-12-12-12-12--||
D||-0-1-0-0--x--x--x--x---0-1-0--x--x--x--x--x---||x2
A||-0-1-0-0--12-12-12-12--0-1-0--10-10-10-10-10--||
D||-0-1-0-0---------------0-1-0------------------||

Gtr.2
e||---------------------------------------||
B||---------------------------------------||
G||---------------------------------------||
D||-0-1-0-0---------------0-1-0-----------||x2
A||-0-1-0-0---------------0-1-0-----------||
D||-0-1-0-0---------------0-1-0-----------||

Gtr.1
e|---------------------------------------------|
B|---------------------------------------------|
G|----------14-14-14-14-----------12-12-12-12--|
D|-7-8-8-8--x--x--x--x---7-8-8-8--x--x--x--x---|
A|-7-8-8-8--12-12-12-12--7-8-8-8--10-10-10-10--|
D|-7-8-8-8---------------7-8-8-8---------------|

Gtr.2
e|----------------------------------------|
B|----------------------------------------|
G|----------------------------------------|
D|-7-8-8-8---------------7-8-8-8----------|
A|-7-8-8-8---------------7-8-8-8----------|
D|-7-8-8-8---------------7-8-8-8----------|

Gtr.1
e|------------------------------------------------|
B|------------------------------------------------|
G|----------14-14-14-14--------------12-12-12-12--|
D|-7-8-8-8--x--x--x--x---7-10-10-10--x--x--x--x---|
A|-7-8-8-8--12-12-12-12--7-10-10-10--10-10-10-10--|
D|-7-8-8-8---------------7-10-10-10---------------|

Gtr.2
e|-----------------------------------------------|
B|-----------------------------------------------|
G|-----------------------------------------------|
D|-7-8-8-8---------------7-10-10-10--------------|
A|-7-8-8-8---------------7-10-10-10--------------|
D|-7-8-8-8---------------7-10-10-10--------------|

---

Harmonisation

Gtr.1
e||-------------------------------------------||
B||-------------------------------------------||
G||----------14-14-14-14---------12-12-12-12--||
D||-0-1-0-0--x--x--x--x---0-1-0--x--x--x--x---||x2
A||-0-1-0-0--12-12-12-12--0-1-0--10-10-10-10--||
D||-0-1-0-0---------------0-1-0---------------||

Gtr.2
e||-------------------------------------------||
B||-------------------------------------------||
G||----------10-10-10-10---------9--9--9--9---||
D||-0-1-0-0--x--x--x--x---0-1-0--x--x--x--x---||x2
A||-0-1-0-0--8--8--8--8---0-1-0--7--7--7--7---||
D||-0-1-0-0---------------0-1-0---------------||


Gtr.1
e|---------------------------------------------|
B|---------------------------------------------|
G|----------14-14-14-14-----------12-12-12-12--|
D|-7-8-8-8--x--x--x--x---7-8-8-8--x--x--x--x---|
A|-7-8-8-8--12-12-12-12--7-8-8-8--10-10-10-10--|
D|-7-8-8-8---------------7-8-8-8---------------|

Gtr.2
e|----------------------------------------------|
B|----------------------------------------------|
G|----------10-10-10-10-------------12-12-12-12-|
D|-7-8-8-8--x--x--x--x---7-10-10-10-x--x--x--x--|
A|-7-8-8-8--8--8--8--8---7-10-10-10-10-10-10-10-|
D|-7-8-8-8---------------7-10-10-10-------------|

---

Chorus
Gtr.1
e|----------------|----------------------|-------------------------|-----------------|
B|-------6--------|----------------------|-------------------------|-----------------|
G|-------7--------|--------------------5-|-------------------------|-----------------|
D|-0--0--7--------|-5----5-7-5---5-7-5---|-10-10-10-10-10-10-10-10-|-7-7-7-8-8-8-7-7-|
A|-0--0--5---7----|---8--------8---------|-8--8--8--8--8--8--8--8--|-5-5-5-5-5-5-5-5-|
D|-0--0----x---8b-|----------------------|-8--8--8--8--8--8--8--8--|-5-5-5-5-5-5-5-5-|

Gtr.2
e|------------------|------------------------|-------------------------|-----------------|
B|------------------|------------------------|-------------------------|-----------------|
G|-------10---------|-12--10-----------------|-------------------------|-----------------|
D|-0--0--x----10----|-x---x--------------5-7-|-8--8--8--8--8--8--8--8--|-5-5-5-5-5-5-5-5-|
A|-0--0--8----8-----|-10--8--7-8-7-5-7-8-----|-8--8--8--8--8--8--8--8--|-5-5-5-5-5-5-5-5-|
D|-0--0-----x----10-|------------------------|-8--8--8--8--8--8--8--8--|-5-5-5-5-5-5-5-5-|

---

Gtr.1
e|---------------|----------------------|-----------------|--------------------------------------|
B|-------6-------|----------------------|-----------------|-------------8-11---------------11-14-|
G|-------7-------|--------------------5-|-----------------|---------6-9---------------9-12-------|
D|-0--0--7-------|-5----5-7-5---5-7-5---|-----------------|-----5-8--------------8-11------------|
A|-0--0--5--7----|---8--------8---------|-3-3-3-3-3-3-3-3-|-4-7-------------7-10-----------------|
D|-0--0-------8b-|----------------------|-3-3-3-3-3-3-3-3-|--------------------------------------|
PM                                                         . . . . . .     . . .  .

Gtr.2
e|------------------|------------------------|-----------------|-------------------------|
B|------------------|------------------------|-----------------|-------------------------|
G|-------10---------|-12--10-----------------|-----------------|-------------------------|
D|-0--0--x----10----|-x---x--------------5-7-|-3-3-3-3-3-3-3-3-|-3--3--3--3--3--3--3--3--|
A|-0--0--8----8-----|-10--8--7-8-7-5-7-8-----|-3-3-3-3-3-3-3-3-|-4--4--4--4--4--4--4--4--|
D|-0--0-----x----10-|------------------------|-3-3-3-3-3-3-3-3-|-3--3--3--3--3--3--3--3--|

Repeat all of the above from the verse, playing the Chorus twice on the repeat.

---

Breakdown section
Gtr.1
e|--------------------------------|---------------------------------|
B|--------------------------------|---------------------------------|
G|--------------------------------|---------------------------------|
D|-----------------7-----5--------|---------------------------------|
A|-----5-----8-----------------8--|-----5-----8-----5p0-7p0-8p0-5p0-|
D|-0-0---0-0---0-0---0-0---0-0----|-0-0---0-0---0-0-----------------|
PM . .   . .   . .    . .    . .     . .   . .   . .

Gtr.2
e|---------------------------------|---------------------------------|
B|---------------------------------|---------------------------------|
G|---------------------------------|-----------------10--12--14--9---|
D|-0-------------------------------|-----------------x---x---x---x---|
A|-0-------------------------------|-----------------8---10--12--7---|
D|-0-------------------------------|---------------------------------|

Gtr.1
e|---------------------------------|---------------------------------|
B|---------------------------------|---------------------------------|
G|---------------------------------|---------------------------------|
D|-----------3-----5-----3-----2*--|-----------3-----2---------------|
A|-1-1-4-1-1---1-1---1-1---1-1-----|-1-1-4-1-1---1-1-0---------------|
D|---------------------------------|---------------------------------|

Gtr.2
e|---------------------------------|--------------------------------|
B|---------------------------------|--------------------------------|
G|---------------------------------|--------------------------------|
D|-8-------------------------------|----------------7---------------|
A|-8-------------------------------|----------------7---------------|
D|-8-------------------------------|----------------7---------------|

---

Gtr.1
e|--------------------------------|---------------------------------|
B|--------------------------------|---------------------------------|
G|--------------------------------|---------------------------------|
D|-----------------7-----5--------|---------------------------------|
A|-----5-----8-----------------8--|-----5-----8-----5p0-7p0-8p0-7p0-|
D|-0-0---0-0---0-0---0-0---0-0----|-0-0---0-0---0-0-----------------|
PM . .   . .   . .    . .    . .     . .   . .   . .


Gtr.2
e|--------------------------------|----------------------------------|
B|--------------------------------|----------------------------------|
G|--------------------------------|----------------------------------|
D|--------------------------------|----------------------------------|
A|-0-0---0-0---0-0----------------|-----0------0-----0-0-0-0-0-0-0-0-|
D|-0-0---0-0---0-0----------------|-----0------0-----0-0-0-0-0-0-0-0-|

Gtr.1
e|--------------------------------|-----------------------------------|
B|--------------------------------|-----------------------------------|
G|--------------------------------|-----------------------------------|
D|-----------3-----5-----3-----2*-|-----------3-----------------------|
A|-1-1-4-1-1---1-1---1-1---1-1----|-1-1-4-1-1---1-1--10p0-8p0-7p0-4p0-|
D|--------------------------------|-----------------------------------|

Gtr.2
e|--------------------------------|----------------------------------|
B|--------------------------------|----------------------------------|
G|--------------------------------|----------------------------------|
D|--------------------------------|----------------------------------|
A|-8-8---8-8---8-8----------------|-----8------8-----7-7-7-7-7-7-7-7-|
D|-8-8---8-8---8-8----------------|-----8------8-----7-7-7-7-7-7-7-7-|

Gtr.1
e|--------------------------------|---------------------------------|
B|--------------------------------|---------------------------------|
G|--------------------------------|---------------------------------|
D|-----------------7-----5--------|---------------------------------|
A|-----5-----8-----------------8--|-----5-----8-----5p0-7p0-8p0-5p0-|
D|-0-0---0-0---0-0---0-0---0-0----|-0-0---0-0---0-0-----------------|
PM . .   . .   . .    . .    . .     . .   . .   . .


Gtr.2
e|--------------------------------|----------------------------------|
B|--------------------------------|----------------------------------|
G|--------------------------------|----------------------------------|
D|--------------------------------|----------------------------------|
A|-0-0---0-0---0-0----------------|-----0------0-----0-0-0-0-0-0-0-0-|
D|-0-0---0-0---0-0----------------|-----0------0-----0-0-0-0-0-0-0-0-|

Gtr.1
e|--------------------------------|-----------------------------------|
B|--------------------------------|-----------------------------------|
G|--------------------------------|-----------------------------------|
D|-----------3-----5-----3-----2*-|-----------3-----------------------|
A|-1-1-4-1-1---1-1---1-1---1-1----|-1-1-4-1-1---1-1--10p0-8p0-7p0-4p0-|
D|--------------------------------|-----------------------------------|

Gtr.2
e|--------------------------------|----------------------------------|
B|--------------------------------|----------------------------------|
G|--------------------------------|----------------------------------|
D|--------------------------------|----------------------------------|
A|-8-8---8-8---8-8----------------|-----8------8-----7-7-7-7-7-7-7-7-|
D|-8-8---8-8---8-8----------------|-----8------8-----7-7-7-7-7-7-7-7-|

---

Gtr.1
e|--------------------------------|---------------------------------|
B|--------------------------------|---------------------------------|
G|--------------------------------|---------------------------------|
D|-----------------7-----5--------|---------------------------------|
A|-----5-----8-----------------8--|-----5-----8-----5p0-7p0-8p0-5p0-|
D|-0-0---0-0---0-0---0-0---0-0----|-0-0---0-0---0-0-----------------|
PM . .   . .   . .    . .    . .     . .   . .   . .

Gtr.2
e|--------------------------------|-----------------------------------|
B|--------------------------------|-----------------------------------|
G|--------------------------------|-----------------------------------|
D|-----------------7-----5--------|-----------------------------------|
A|-----5-----8-----------------8--|-----5-----8-----8p0-10p0-12p0-7p0-|
D|-0-0---0-0---0-0---0-0---0-0----|-0-0---0-0---0-0-------------------|
PM . .   . .   . .    . .    . .     . .   . .   . .

Gtr.1
e|--------------------------------|-----------------------------------|
B|--------------------------------|-----------------------------------|
G|--------------------------------|-----------------------------------|
D|-----------3-----5-----3-----2*-|-----------3-----------------------|
A|-1-1-4-1-1---1-1---1-1---1-1----|-1-1-4-1-1---1-1--10p0-8p0-7p0-4p0-|
D|--------------------------------|-----------------------------------|

Gtr.2
e|--------------------------------|-------------------------------------|
B|--------------------------------|-------------------------------------|
G|--------------------------------|-------------------------------------|
D|-----------3-----5-----3-----2*-|-----------3-------------------------|
A|-1-1-4-1-1---1-1---1-1---1-1----|-1-1-4-1-1---1-1--13p0-12p0-10p0-7p0-|
D|--------------------------------|-------------------------------------|

---

Gtr.1
e|--------------------------------|---------------------------------|
B|--------------------------------|---------------------------------|
G|--------------------------------|---------------------------------|
D|-----------------7-----5--------|---------------------------------|
A|-----5-----8-----------------8--|-----5-----8-----5p0-7p0-8p0-5p0-|
D|-0-0---0-0---0-0---0-0---0-0----|-0-0---0-0---0-0-----------------|
PM . .   . .   . .    . .    . .     . .   . .   . .

Gtr.2
e|--------------------------------|-----------------------------------|
B|--------------------------------|-----------------------------------|
G|--------------------------------|-----------------------------------|
D|-----------------7-----5--------|-----------------------------------|
A|-----5-----8-----------------8--|-----5-----8-----8p0-10p0-12p0-7p0-|
D|-0-0---0-0---0-0---0-0---0-0----|-0-0---0-0---0-0-------------------|
PM . .   . .   . .    . .    . .     . .   . .   . .

Gtr.1
e|--------------------------------|-----------------------------------|
B|--------------------------------|-----------------------------------|
G|--------------------------------|-----------------------------------|
D|-----------3-----5-----3-----2*-|-----------3-----------------------|
A|-1-1-4-1-1---1-1---1-1---1-1----|-1-1-4-1-1---1-1--10p0-8p0-7p0-4p0-|
D|--------------------------------|-----------------------------------|

Gtr.2
e|--------------------------------|------------------------------------|
B|--------------------------------|------------------------------------|
G|--------------------------------|------------------------------------|
D|-----------3-----5-----3----2*--|-----------3------------------------|
A|-1-1-4-1-1---1-1---1-1---1-1----|-1-1-4-1-1---1-1-13p0-12p0-10p0-7p0-|
D|--------------------------------|------------------------------------|


Solo
HEAFY
e|--------------------|--------------------------------------|
B|--------------------|-----5-----5--6--5--6--8--6--5-----5--|
G|--6b-------7~-------|--7-----7-----------------------7-----|
D|--------------------|--------------------------------------|
A|--------------------|--------------------------------------|
D|--------------------|--------------------------------------|

e|-----------------------|-----------------------|
B|-----------------------|-----------------------|
G|--6b-----6-7--------6b-|--6b-----6-7-----------|
D|-------------8---------|-------------8----8----|
A|-----------------------|-----------------------|
D|-----------------------|-----------------------|

e|-----------------------------------------|
B|-----------------------------------------|
G|----------------------9-10-9----9--------|
D|-------7----7-10-7-10--------10---10-7---|
A|--8-10---10----------------------------8-|
D|-----------------------------------------|

e|----------10h12-13-12-----------------|----------------------------------|
B|----------------------13--------------|----------------------------------|
G|-------------------------10-9~--------|------6---6b-7b-6---6-------------|
D|--7-----------------------------------|--7-8---7---------8---8-7-5-------|
A|----8-7-8------------------------7~---|----------------------------8-7-5-|
D|--------------------------------------|----------------------------------|

e|--------------------------------------------------|
B|--------------------------------------6-7---------|
G|--------------------6-7-6-------6-7-9-----7-6-7-9-|
D|--------------5-7-8-------8-7-8-------------------|
A|--4-5-7-5-7-8-------------------------------------|
D|--------------------------------------------------|

This bit sounds cool with the two guitars.
Harmony - Heafy
e|--13~-------13------------------|--------------------------------------|
B|---------15----15---------------|--------------------------------------|
G|------------------14------14-14-|--14~-----12-14-15--14-12-14-12----14-|
D|--------------------------------|--------------------------------15----|
A|--------------------------------|--------------------------------------|
D|--------------------------------|--------------------------------------|

Harmony - Beaulieu
e|--------------------------------|--------------------------------------|
B|--15~-------15------------------|--------------------------------------|
G|---------14----14---------------|--------------------------------------|
D|------------------15------15-15-|--15~-----14-15-17--15-14-15-14----15-|
A|--------------------------------|--------------------------------17----|
D|--------------------------------|--------------------------------------|

Beaulieu
e|-------------------------------------17-------------15-------|
B|----------------------------15h17-18----18-17p15h17----17-15-|
G|-------7h10p7---------7h9p7----------------------------------|
D|--8h10--------10p8h10----------------------------------------|
A|-------------------------------------------------------------|
D|-------------------------------------------------------------|

e|-----------17----------------15----------------15-------17-------11-10----------|
B|--15h17-18----18-17-15-17-18----18-17-15-17-18----18-17----17-16-------14-13-12-|
G|--------------------------------------------------------------------------------|
D|--------------------------------------------------------------------------------|
A|--------------------------------------------------------------------------------|
D|--------------------------------------------------------------------------------|

e|----------------------------------------------|
B|----------------------------------------------|
G|--10~-----------------------5h7p5-----------5-|
D|--------7h8p7-------------7-------8p7p5-7h8---|
A|--------------10p8p7-8h10---------------------|
D|----------------------------------------------|

e|------------------------------------------------|
B|--------------------5-6-5-----------------------|
G|--7-9-7-5-------5-7-------7-5------9-10-12b-----|
D|----------8-7-8---------------8-12--------------|
A|------------------------------------------------|
D|------------------------------------------------|

e|--6p3-------3-9p6---------------------12p9---------9-|
B|------5-2-5-------8-5-8-7-6-5--------------11-8-11---|
G|------------------------------8-7-6-5----------------|
D|-----------------------------------------------------|
A|-----------------------------------------------------|
D|-----------------------------------------------------|

e|--12p9--------------------------15p12----------12-18p15----------17-|
B|-------11-8-11-10-9-8-----------------14-11-14----------17-14-17----|
G|----------------------11-10-9-8-------------------------------------|
D|--------------------------------------------------------------------|
A|--------------------------------------------------------------------|
D|--------------------------------------------------------------------|

Solo Backing
This is kinda weird on the actual song so i just kept it simple.
Play each chord for four bars with a few variations on the strumming pattern.
e|-----|-----|-----|-----|
B|-----|-----|-----|-----|
G|-----|-----|-----|-----|
D|--0--|--8--|--3--|--3--|
A|--0--|--8--|--3--|--4--|
D|--0--|--8--|--3--|--3--|

I think this bit might actually be harmonics but I can't tell, this sounds good though.
e|-------------------------------|-------------------------------|
B|-------------------------------|-------------------------------|
G|-----------17--17--17--17--17--|-----------14--14--14--14--14--|
D|--0--1--0----------------------|--0--1--0----------------------|
A|--0--1--0--15--15--15--15--15--|--0--1--0--12--12--12--12--12--|
D|--0--1--0----------------------|--0--1--0----------------------|

                                                             Other guitar enters here.
e|-------------------------------|------------------------------|
B|-------------------------------|------------------------------|
G|-----------17--17--17--17--17--|-----------14--14--14--14-----|
D|--0--1--0----------------------|--0--1--0------------------7--|
A|--0--1--0--15--15--15--15--15--|--0--1--0--12--12--12--12--7--|
D|--0--1--0----------------------|--0--1--0------------------7--|

Back to pre chorus, chorus, and then main riff.


                       --------------------------------
                       |   Drowned and Torn Asunder   |
                       --------------------------------

intro

Corey and Matt

E|-----------------------------------------------------------------------------------|
B|-----------------------------------------------------------------------------------|
G|--7-7-7-7-9-9-9-9-10-10-10-10-12-12-12-12--10-10-10-9-9-5-5-5---10-10-9-9-5-5-5----|
D|-----------------------------------------------------------------------------------|
A|--5-5-5-5-7-7-7-7--8--8--8--8-10-10-10-10---8--8--8-7-7-3-3-3----8--8-7-7-3-3-3----|
E|-----------------------------------------------------------------------------------|

Guitar III

E|-----------------------------------------------------------------------------------|
B|-----------------------------------------------------------------------------------|
G|-----------------------------------------------------------------------------------|
D|--0-0-0-0-0-0-0-0--0--0--0--0--0--0--0--0---8--8--8-8-8-8-8-8-8--8--8-8-8-8-8-8----|
A|--0-0-0-0-0-0-0-0--0--0--0--0--0--0--0--0---8--8--8-8-8-8-8-8-8--8--8-8-8-8-8-8----|
E|--0-0-0-0-0-0-0-0--0--0--0--0--0--0--0--0---8--8--8-8-8-8-8-8-8--8--8-8-8-8-8-8----|

Corey and Matt

E|---------------------------------------------------------------------------------------------|
B|---------------------------------------------------------------------------------------------|
G|--10-10-10-10-12-12-12-12-14-14-14-14-15-15-15-15--14-14-14-12-12-9-9-9---14-14-12-12-9-9-9--|
D|---------------------------------------------------------------------------------------------|
A|---8--8--8--8-10-10-10-10-12-12-12-12-13-13-13-13--12-12-12-10-10-7-7-7---12-12-10-10-7-7-7--|
E|---------------------------------------------------------------------------------------------|

Guitar III

E|--------------------------------------------------------------------------------------------|
B|--------------------------------------------------------------------------------------------|
G|--------------------------------------------------------------------------------------------|
D|--0--0--0--0--0--0--0--0--0--0--0--0--0--0--0--0---8--8--8--8--8-8-8-8-8--8--8--8--8-8-8-8--|
A|--0--0--0--0--0--0--0--0--0--0--0--0--0--0--0--0---8--8--8--8--8-8-8-8-8--8--8--8--8-8-8-8--|
E|--0--0--0--0--0--0--0--0--0--0--0--0--0--0--0--0---8--8--8--8--8-8-8-8-8--8--8--8--8-8-8-8--|

Verse

Matt

E|--------------------------------------------------------------------------------------------------------------------------|
B|--------------------------------------------------------------------------------------------------------------------------|
G|--------------------------------------------------------------------------------------------------------------------------|
D|---7-------9-----------5-3------7-------9----------------------7-------9-----------5-3-----7-------9----------------------|
A|---5-------7--------------------5-------7----------------------5-------7-------------------5-------7----------------------|
E|-----0-0-0---0-0-0-1p0-----0-0----0-0-0---0-0-1p0-0-0-1p0-0-0----0-0-0---0-0-0-1P0-----0-0---0-0-0---0-0-1P0-0-0-1P0-0-0--|
       P.M--   -----         ---    -----   ---     ---     ---    -----   -----         --- -----   ---     ---     ---

Corey

E|--------------------------------------------------------------------------------------------------------------------------|
B|--------------------------------------------------------------------------------------------------------------------------|
G|--------------------------------------------------------------------------------------------------------------------------|
D|---7-------9-----------5-3------7-------9----------------------7-------9-----------8-7-----7-------9----------------------|
A|---5-------7--------------------5-------7----------------------5-------7-------------------5-------7----------------------|
E|-----0-0-0---0-0-0-1p0-----0-0----0-0-0---0-0-1p0-0-0-1p0-0-0----0-0-0---0-0-0-1P0-----0-0---0-0-0---0-0-1P0-0-0-1P0-0-0--|
       P.M--   -----         ---    -----   ---     ---     ---    -----   -----         --- -----   ---     ---     ---
This is repeated through the verse


little pre verse fill

Guitar III

E|---19-17h19p17--------------------------|
B|---------------18-16-15-----------------|
G|------------------------17-16-----------|
D|------------------------------18--------|
A|----------------------------------------|
E|----------------------------------------|

Corey

E|---12-10h12p10--------------------------|
B|---------------11-9-8-------------------|
G|----------------------10-9--------------|
D|---------------------------11-----------|
A|----------------------------------------|
E|----------------------------------------|

End verse riff

Corey and Matt

E|------------------------------------------------------------------------|
B|------------------------------------------------------------------------|
G|--------------------12---10----9h10-------------------------------------|
D|---10-------9-----------------------------------------------------------|
A|------8-8-8---8-8-8---8-8--8-8------8-------7---------------------------|
E|--------------------------------------0-0-0---0-0-0-0h10h12-15p0-15h17--| X2
        P.M--   -----   ---  ---      -------   -----
Pre chorus

Corey

E|-------------------------------------------------------------------------------------------------------------------|
B|-------------------------------------------------------------------------------------------------------------------|
G|-------------------------------------------------------------------------------------------------------------------|
D|---12p0--------10p0----8p0----12p0---------------------------12p0--------10p0----8p0----10p0----8----12p0------10--|
A|---------------------------------------------8h10------10h12-------------------------------------------------------|

X4
          P.M---      --     --      ------ --      ----            ------      --     
     --   --      ----

Matt

E|-------------------------------------------------------------------------------------------------------------------|
B|-------------------------------------------------------------------------------------------------------------------|
G|-------------------------------------------------------------------------------------------------------------------|
D|---15p0--------14p0----12p0---15p0-----------14h15----15h17-15p0--------14p0----12p0---14p0----12p0----15p0---14p0-|
A|-------------------------------------------------------------------------------------------------------------------|

x 4
          P.M---      --     --      ------ --       --            ------      --     -- 
    --     --      --

Chorus

Guitar III
E|------------------------------------------------------------------------------------------------13--12~--------|
B|--------------------------------------------------------------------------------------------------------13-----|
G|---14------12--------------------14------12--------------------14------12--------------------------------------|
D|-------15------14---14--15--12-------15------14---14--15--12-------15------14--14--15--12----------------------|
A|---------------------------------------------------------------------------------------------------------------|
E|---------------------------------------------------------------------------------------------------------------|

E|---------------------------------------------------------------------------------------------------------------|
B|---------------------------------------------------------------------------------------------------------------|
G|---14------12--------------------14------12--------------------14------12--------------------------------------|
D|-------15------14---14--15--12-------15------14---14--15--12-------15------14--14--15--12---------1------------|
A|--------------------------------------------------------------------------------------------------1------------|
E|--------------------------------------------------------------------------------------------------1------------|

Corey

E|---------------------------------------------------------------------------------------------------------------|
B|---------------------------------------------------------------------------------------------------------------|
G|---10------9--------------------10------9--------------------10-------9-------------------------10--9----------|
D|-------12-----10---10--12--10-------10------10---10--12--10-------10------10--10--12--10----------------10-----|
A|---------------------------------------------------------------------------------------------------------------|
E|---------------------------------------------------------------------------------------------------------------|

E|---------------------------------------------------------------------------------------------------------------|
B|---------------------------------------------------------------------------------------------------------------|
G|---10------9--------------------10------9--------------------10-------9----------------------------------------|
D|-------12-----10---10--12--10-------10------10---10--12--10-------10------10--10--12--10-----------1-----------|
A|---------------------------------------------------------------------------------------------------1-----------|
E|---------------------------------------------------------------------------------------------------1-----------|

Matt

E|--------------------------------------------------------------------------------------------------------|
B|--------------------------------------------------------------------------------------------------------|
G|--------------------------------------------------------------------------------------------------------|
D|---0-------------0--------10-------------------10--------8------------------8-------------3---2---3-----|
A|---0-------------0--------10-------------------10--------8------------------8-------------3---2---3-----|
E|---0-------------0--------10-------------------10--------8------------------8-------------3---2---3-----|

E|---------------------------------------------------------------------------------------------------------------|
B|---------------------------------------------------------------------------------------------------------------|
G|---------------------------------------------------------------------------------------------------------------|
D|---0--------------------0--------10-------------------10--------8------------------8--------------1------------|
A|---0--------------------0--------10-------------------10--------8------------------8--------------1------------|
E|---0--------------------0--------10-------------------10--------8------------------8--------------1------------|

Verse
end verse
pre chorus
chorus

Break

Both guitars

E|------------------------------------------------------------------------------------|
B|------------------------------------------------------------------------------------|
G|------------------------------------------------------------------------------------|
D|---0----------0--0---------8---7---3---0----------0--0----------8---7---3-----------|
A|---0----------0--0---------8---7---3---0----------0--0----------8---7---3-----------|
E|---0----------0--0---------8---7---3---0----------0--0----------8---7---3-----------|
            P.M-----                                ----------------------------------|

Guitar 1

Fast alternate picking

E|--------------------------------------|--------------------------------|
B|--------------------------------------|--------------------------------|
G|---7p0000003p0000005p0000002p000000--*|--10p0010p0010p009p009p009p00---|
D|-------------------------------------*|--------------------------------|
A|--------------------------------------|--------------------------------|
E|--------------------------------------|--------------------------------|

                                      3x
E|--------------------------------------|--------------------------------|
B|--------------------------------------|--------------------------------|
G|*--7p0000003p0000005p0000002p000000--*|--10p0-9p0-7p0-9p0-10p0-12p0----|
D|*------------------------------------*|--------------------------------|
A|--------------------------------------|--------------------------------|
E|--------------------------------------|--------------------------------|

Guitar II

Fast alternate picking
                                     3x
E|-------------------------------------|----------------------------|
B|-------------------------------------|----------------------------|
G|*-----------------------------------*|----------------------------|
D|*--8p0000005p0000007p0000003p000000-*|--8p008p008p007p007p007p00--|
A|-------------------------------------|----------------------------|
E|-------------------------------------|----------------------------|

                                     3x
E|-------------------------------------|----------------------------|
B|-------------------------------------|----------------------------|
G|*-----------------------------------*|----------------------------|
D|*--8p0000005p0000007p0000003p000000-*|-8p0-7p0-5p0-7p0-8p0-10p0---|
A|-------------------------------------|----------------------------|
E|-------------------------------------|----------------------------|

Solos

Corey

e|---------------------------------------17p13----------13-------|
b|---------------------------------------------15----15----------|
g|-------------------------15p14p12-14------------14-------------|
d|-12h14h15-14--12h14h15-14--------------------------------------|
a|---------------------------------------------------------------|
D|---------------------------------------------------------------|

e|--15p12----------12--18-17-15----------------------------------|
b|--------13----13--------------18-17-15-------------------------|
g|-----------12--------------------------17-15-14----------------|
d|-------------------------------------------------17-15-14------|
a|-----------------------------------------------------------17--|

Matt

e|--------------------------------------------------------------------------------------------------------|
b|--------------------------------------------------------------------------------------------------------|
g|--------------------------------------------------------------------------------------------------------|
d|-----------------------------------------------------------3-3-3-------2-2-2-------2-2-2--------3-3-3---|
a|---------7-7-7-------5-5-5-------8-8-8-------7-7-7---1-1-1-------1-1-1-------0-0-0----------------------|
d|---0-0-0-------0-0-0-------0-0-0-------0-0-0----------------------------------------------3-3-3---------|

Corey

e|------------------------------------------------------------------------------------------------------------|
b|------------------------------------------------------------------------------------------------------------|
g|------------------------------------------------------------------------------------------------------------|
d|-----------------------------------------------------------3-3-3-------2-2-2-------2-2-2--------3-3-3-------|
a|---------7-7-7-------5-5-5-------8-8-8-------7-7-7---1-1-1-------1-1-1-------0-0-0--------------------------|
d|---0-0-0-------0-0-0-------0-0-0-------0-0-0----------------------------------------------3-3-3-------------|

Matt

e|-----------------------------------------------------------------------------10------12---------------------|
b|---1510-10-10--13-13-138-8-8--10-10-106-6-6--8-8-85--5-5-6-5-6b(8)r-------------------------------------|
g|------------------------------------------------------------------------7--7----9/10----10/14b(15)----------|
d|------------------------------------------------------------------------------------------------------------|
a|------------------------------------------------------------------------------------------------------------|
d|------------------------------------------------------------------------------------------------------------|

Corey

e|---------------------------------------------------------10----12-12-13-12----12-------------------------13-12--------|
b|---------------------------------------10----11-10-12-13----12-------------15----15-13-15-13-11-13-11-10-------13-10~-|
g|-----------------------9----10-9-10-12----12--------------------------------------------------------------------------|
d|--------7----8-7-10-12---12-------------------------------------------------------------------------------------------|
a|--5-7-8---10----------------------------------------------------------------------------------------------------------|
d|----------------------------------------------------------------------------------------------------------------------|

Matt

e|------------------------------------------------------------------------------------------------------------|
b|------------------------------------------------------------------------------------------------------------|
g|------------------------------------------------------------------------------------------------------------|
d|-----------------------------------------------------------3-3-3-------2-2-2-------2-2-2--------3-3-3-------|
a|---------7-7-7-------5-5-5-------8-8-8-------7-7-7---1-1-1-------1-1-1-------0-0-0--------------------------|
d|---0-0-0-------0-0-0-------0-0-0-------0-0-0----------------------------------------------3-3-3-------------|

Corey

e|------------------------------------------------------------------------------------------------------------|
b|------------------------------------------------------------------------------------------------------------|
g|------------------------------------------------------------------------------------------------------------|
d|-----------------------------------------------------------3-3-3-------2-2-2-------2-2-2--------3-3-3-------|
a|---------7-7-7-------5-5-5-------8-8-8-------7-7-7---1-1-1-------1-1-1-------0-0-0--------------------------|
d|---0-0-0-------0-0-0-------0-0-0-------0-0-0----------------------------------------------3-3-3-------------|

Matt

e|----------------------------------------------------------------------------------------------------------|
b|----------------------------------------------------------------------------------------------------------|
g|----------------------------------------------------------------------------------------------------------|
d|----------------------------------------------------------------------------------------12-13-15-12-13-15-|
a|-/12-12-12-12-12-12-12-12-12-12-12-12--12-10--8--7~-------------------12-14-15-12-14-15-------------------|
d|----------------------------------------------------12-13-15-12-13-15-------------------------------------|


e|---------------------------------------------------------------|
b|---------------------------------------------------------------|
g|-------------------------------------12-13-15-12-13-15-17b(19)-|
d|-------------------12-13-15-12-13-15---------------------------|
a|-12-14-15-12-14-15---------------------------------------------|
d|---------------------------------------------------------------|


Harmony

Corey

e|---13--10-----10---------------------------------------------------------|
b|-----------11----11----11------------------------------------------------|
g|--------------------10----10------10-------------------------------------|
d|------------------------------12-----12--10--12--10------10--------------|
a|-----------------------------------------------------13------13--12--13~-|
d|-------------------------------------------------------------------------|


e|-10--6-----6--------------------------------------------------------|
b|--------8----8-----8------------------------------------------------|
g|----------------7-----7-----7---------------------------------------|
d|-------------------------8-----8---7---8---7-----7------------------|
a|----------------------------------------------10----10-8-10~--------|
d|--------------------------------------------------------------------|


Matt

e|---17--13-----13---------------------------------------------------------|
b|-----------15----15----15------------------------------------------------|
g|--------------------14----14------14-------------------------------------|
d|------------------------------15-----15--14--15--14------14--------------|
a|-----------------------------------------------------17------17--15--17~-|
d|-------------------------------------------------------------------------|


e|--13--10---10--------------------------------------------------------|
b|---------11---11----11-----------------------------------------------|
g|-----------------10----10----10--------------------------------------|
d|--------------------------12----12--10--12--10----10-----------------|
a|-----------------------------------------------13----13-12-13~-------|
d|---------------------------------------------------------------------|


Corey

e|---13--10-----10---------------------------------------------------------|
b|-----------11----11----11------------------------------------------------|
g|--------------------10----10------10-------------------------------------|
d|------------------------------12-----12--10--12--10------10--------------|
a|-----------------------------------------------------13------13--12--13~-|
d|-------------------------------------------------------------------------|

e|-13--15--17--15--17--18--18(20)r--18b(19)---------------------------|
b|--------------------------------------------------------------------|
g|--------------------------------------------------------------------|
d|--------------------------------------------------------------------|
a|--------------------------------------------------------------------|
d|--------------------------------------------------------------------|

Matt

e|---17--13-----13---------------------------------------------------------|
b|-----------15----15----15------------------------------------------------|
g|--------------------14----14------14-------------------------------------|
d|------------------------------15-----15--14--15--14------14--------------|
a|-----------------------------------------------------17------17--15--17~-|
d|-------------------------------------------------------------------------|


e|---------------------------------------------------------------------|
b|--15--17--18--17--18--20--20b(22)r--20b(21)--------------------------|
g|---------------------------------------------------------------------|
d|---------------------------------------------------------------------|
a|---------------------------------------------------------------------|
d|---------------------------------------------------------------------|


Pre Chorus
Chorus x2

END


                             ----------------------
                             |     Ascendancy     |
                             ----------------------


Intro/Chorus - Cory

|-------------------------|-------------------------|
|-------------------------|-------------------------|
|-----6--------6----------|-----2--------2----------|
|--4--4--x--4--4--x-x-x-x-|--0--4--x--0--4--x-x-x-x-|
|--4-----x--4-----x-x-x-x-|--0-----x--0-----x-x-x-x-|
|--4-----4--4-----4-4-4-4-|--0-----0--0-----0-0-0-0-| Do this 4 times.

Intro/Chorus - Matt

|-------------------------|-------------------------|
|-------------------------|-------------------------|
|-----6--------6----------|-----2--------2----------|
|--4--6--x--4--6--x-x-x-x-|--0--0--x--0--0--x-x-x-x-|
|--4-----x--4-----x-x-x-x-|--0-----x--0-----x-x-x-x-|
|--4-----4--4-----4-4-4-4-|--0-----0--0-----0-0-0-0-| Do This 4 Times.

Guitar 3 (Do this 2 times)

|-----------------------|
|-----------------------|
|-----------------------|
|--6--4--2~---6--4--7~--|
|-----------------------|
|-----------------------| Then...

|--------------------------|--------------------------|
|--------------------------|--------------------------|
|--------------------------|--------------------------|
|--11--9--7~---11--9--6~---|--11--9--7~---11--9--12~--|
|--------------------------|--------------------------|
|--------------------------|--------------------------| Do this once.

Verse - Cory (Do this twice)

|---------------------------------|---------------------------------|
|---------------------------------|---------------------------------|
|---------------------------------|---------------------------------|
|-----------------7-7-7-7-7-7-7-7-|-----------------7-7-7-7-6-6-6-6-|
|---------------------------------|---------------------------------|
|-4-4-4-4-4-4-4-4-----------------|-4-4-4-4-4-4-4-4-----------------|

|---------------------------------|----------------------------------|
|---------------------------------|----------------------------------|
|---------------------------------|----------------------------------|
|-----------------6-6-6-6-6-6-6-6-|---------4-4-4-4----------6-6-6-6-|
|---------------------------------|----------------------------------|
|-3-3-3-3-3-3-3-3-----------------|-0-0-0-0---------3-3-3-3----------|

(Do this twice too)

|-------------------|---------------------|-------------------|
|-------------------|---------------------|-------------------|
|-------------------|---------------------|-------------------|
|-----------------7-|-----------------7-6-|-----------------6-|
|-----------------4-|-----------------4-4-|-----------------4-|
|-4-4-4-4-4-4-4-4---|-4-4-4-4-4-4-4-4-----|-3-3-3-3-3-3-3-3---|

Continued from above...
|----------------------|
|----------------------|
|----------------------|
|---------4----------6-|
|---------4----------4-|
|-0-0-0-0----3-3-3-3---|

Verse - Matt (Do this four times)

|---------------------------------|---------------------------------|
|---------------------------------|---------------------------------|
|---------------------------------|---------------------------------|
|-----------------7-7-7-7-7-7-7-7-|-----------------7-7-7-7-6-6-6-6-|
|---------4-4-4-4-----------------|---------4-4-4-4-----------------|
|-4-4-4-4-------------------------|-4-4-4-4-------------------------|

|---------------------------------|---------------------------------|
|---------------------------------|---------------------------------|
|---------------------------------|---------------------------------|
|-----------------6-6-6-6-6-6-6-6-|---------4-4-4-4---------6-6-6-6-|
|---------3-3-3-3-----------------|---------------------------------|
|-3-3-3-3-------------------------|-0-0-0-0---------3-3-3-3---------|

Pre Chorus - Cory (Do this twice)

|---------------------------------------------|
|---------------------------------------------|
|----------------------------------4----------|
|-4----------6----------7---------------------|
|---5--5-5-5---5--5-5-5---5--5-5-5---5--5-5-5-|
|---------------------------------------------|

Continued from above...
|---------------------------------------------|-----------------------|
|---------------------------------------------|-----------------------|
|----------------------------------6----------|--13-11-14--13--14--16-|
|-6----------7----------9---------------------|--x--x--x---x---x---x--|
|---7--7-7-7---7--7-7-7---7--7-7-7---7--7-7-7-|--11-9--12--11--12--14-|
|---------------------------------------------|-----------------------|

Pre Chorus - Matt (Do this twice)

|---------------------------------------------|
|---------------------------------------------|
|------------4----------6----------7----------|
|-7-------------------------------------------|
|---5--5-5-5---5--5-5-5---5--5-5-5---5--5-5-5-|
|---------------------------------------------|

Continued from above...

|---------------------------------------------|------|---------------------|
|---------------------------------------------|------|---------------------|
|------------6----------7----------9----------|------|---------------------|
|-9-------------------------------------------|--0~--|--------99-1111-1212-|
|---7--7-7-7---7--7-7-7---7--7-7-7---7--7-7-7-|--0~--|-7-9-7---------------|
|---------------------------------------------|--0~--|---------------------|

Do The Intro/Chorus Here.
Now Repeat All The Above Then...

Bridge and backing for solo - Matt

|-----------------------|---------------------------|---------------------|
|-----------------------|---------------------------|---------------------|
|-----------------------|---------------------------|-7-------6-----------|
|-7----------6----------|---------------------------|----------------7----|
|-----------------------|---------------------------|---------------------|
|---4--4-4-4---4--4-4-4-|-4--4-4-4--4--4-4-4--4-4-4-|---4-4-----4-4----4-4|

Continued from above...
Cory joins here--x
|----------------x|-----------------------|---------------------------|
|----------------x|-----------------------|---------------------------|
|----------------x|-----------------------|---------------------------|
|---6--------6--7x|-7----------6----------|---------------------------|
|-----------------|-----------------------|---------------------------|
|-4---4--4-4------|---0--0-0-0---0--0-0-0-|-0--0-0-0--0--0-0-0--0-0-0-|

Continued from above...
|----------------------|-------------|
|----------------------|-------------|
|----------------------|-------------|
|----------------------|-------------|
|------9------11-------|-11--12---16-|
|-0--7---0--9----0--11-|-------------|

Bridge and backing for solo - Cory (look in Matts part to see where to join)

|------------------------|------------------|------------------------------|
|------------------------|-----10-----9-----|---------------------------14-|
|------------------------|------------------|-----11-----13------13-14-----|
|----4-------------------|-0-7----0-6---0-7-|-0-7----0-9----0-11-----------|
|---------------7--------|------------------|------------------------------|
|-12---0--0--0---0--0--0-|------------------|------------------------------|

Continued from above...
|-----------------------|---------------------------|
|-----------------------|---------------------------|
|--------------------






Like us on Facebook