Becoming The Dragon Tab - Trivium






intro corey
|---------------------------|
|---------------------------|
|-4------3------4------3----|
|-2------1------2------1----|
|-2------1------2------1----|
|---------------------------|

intro matt(also the intro solo background and the verses)
|-------------------------------|
|-------------------------------|
|-------------------------------|
|-9-------10--------9---8-------|
|-7-------8---------7---6-------|
|---0-0-0---0-0-0-0---0----0-0--|

|-----------------------|
|-----------------------|
|-----------------------|
|----------------5--4---|
|----------------3--2---|
|-0-0-0-0-0-0-0---------|

|-------------------------------|
|-------------------------------|
|-------------------------------|
|-9-------10--------9---8-------|
|-7-------8---------7---6-------|
|---0-0-0---0-0-0-0---0----0-0--|

|-----------------------|
|-----------------------|
|-----------------------|
|---------------11--12--|
|----------------9--10--|
|-0-0-0-0-0-0-0---------|

haven't quite figured out the intro solo

prechorus:
|-------------------------------
|------------------------------------
|------------------------------------
|------------------------------------
|-9-999999--777777--5-555555--333333-
|-7-777777--555555--3-333333--111111-
    ------            ------

Chorus:

|-----------------|
|-----------------|
|-----------------|
|-222-2~----------|
|-222-2~---5-4~---|
|-000-0~---3-2~---| x4
  ---

Verse x2

Prechorus x2

chorus x2

Presolo:
|-----------------------------------------|
|-----------------------------------------|
|-----------------------------------------|
|-2222-2222-2222-2222-2222-2222-2222-2222-|
|-2222-2222-2222-2222-2222-2222-2222-2222-|
|-0000-0000-0000-0000-0000-0000-0000-0000-|
  ---- ---- ---- ---- ---- ---- ---- ----

|-------------------------------------------|
|-------------------------------------------|
|---------------------------------222-55-44-|
|----------------------222-444-555----------|
|-----------------22-33---------------------|
|-000-222-333-555---------------------------|x2

(To have a shot, at becoming a...)
|----------------------------------|
|----------------------------------|
|----------------------------------|
|-22222222222222222222222222222222-|
|-22222222222222222222222222222222-|
|-00000000000000000000000000000000-|

|-------------------------------------------|
|-------------------------------------------|
|---------------------------------222-55-44-|
|----------------------222-444-555----------|
|-----------------22-33---------------------|
|-000-222-333-555---------------------------|x1

|-----------------------------------------|
|-----------------------------------------|
|-----------------------------------------|
|-2222-2222-2222-2222-2222-2222-2222-2222-|
|-2222-2222-2222-2222-2222-2222-2222-2222-|
|-0000-0000-0000-0000-0000-0000-0000-0000-|
  ---- ---- ---- ---- ---- ---- ---- ----

|-------------------------------------------|
|-------------------------------------------|
|---------------------------------222-55-44-|
|----------------------222-444-555----------|
|-----------------22-33---------------------|
|-000-222-333-555---------------------------|

I couldnt figure out the solo, and the rest of the song is basically the same thing.

solo background is the matts part of the intro.












Like us on Facebook