Dying In Your Arms Acoustic Tab - Trivium






----------------------------------------------------------------------------
  Dying In Your Arms (Acoustic) - Trivium
----------------------------------------------------------------------------
Tabbed by: Sam B

Email: bfmv_55@hotmail.co.uk

Tuning: Drop D (DADGBe)

p  - Pull off
h  - Hammer on
~  - Vibrato
x  - Muted Note
PM - Palm Mute
/  - Slide Up
  - Slide Down
b  - Bend Up OR Down
// - Tremolo Picking

I used this to work out this tab.....
http://www.youtube.com/watch?v=6iBH5mxIpLw

Intro/Chorus
Corey
e|------------------------------------|
B|------------------------------------|
G|------------------------------------|
D|--10~-9-10~-9-10~-9----9-10---------|
A|--------------------12------12-10---|
D|------------------------------------|

Matt
e|--0-0-0-00----------------------------------|
B|--1-1-1-11---5-5-5-55--6-6-6-66--8888-5555--|  /    I am not too
G|--2-2-2-22---4-4-4-44--5-5-5-55--7777-4444--| /---- sure about the
D|--2-2-2-22---2-2-2-22--3-3-3-33--5555-2222--| ---- strumming pattern
A|--0-0-0-00---2-2-2-22--3-3-3-33--5555-2222--|      here
D|-------------2-2-2-22--3-3-3-33--5555-2222--|


Verse
(Both Guitars)
e|--00--x------x------x----------|
B|--11--x--33--x--66--x--88-55---|
G|--22--x--22--x--55--x--77-44---|
D|--22--x--00--x--33--x--55-22---|






Like us on Facebook