Like Light To The Flies Intro (ver2) Tab - Trivium






DROP D TUNING

LIKE LIGHT TO THE FLIES - TRIVIUM

e|----------------------------------|
B|----------------------------------|
G|----------------------------------|
D|-8p0---------------3-----5---7----|
A|-8p0-0-0-0-0-0-0-0-3-0-0-5-0-7-0--|
D|-8p0-0-0-0-0-0-0-0-3-0-0-5-0-7-0--|
PM     . . . . . . .   . .   .   .

e|----------------------------------|
B|----------------------------------|
G|-------------------10----9---7----|
D|-8p0---------------x-----x---x----|
A|-8p0-0-0-0-0-0-0-0-8-0-0-7-0-5-0--|
D|-8p0-0-0-0-0-0-0-0---0-0---0---0--|
PM     . . . . . . .   . .   .   .

e|----------------------------------|
B|----------------------------------|
G|----------------------------------|
D|-8p0---------------3-----5---7----|
A|-8p0-0-0-0-0-0-0-0-3-0-0-5-0-7-0--|
D|-8p0-0-0-0-0-0-0-0-3-0-0-5-0-7-0--|
PM     . . . . . . .   . .   .   .

e|------------------------------------------|
B|------------------------------------------|
G|------------------------------------------|
D|------------------------------------------|
A|------------------------------------------|
D|-8-7-8-10-12-10-8-7-10-8-10-12-14-12-10-8-|











Like us on Facebook