Like Light To The Flies Intro Tab - Trivium






d----------/------------------------------------------------------------|
a----------/------------------------------------------------------------|
f----------/------------------------------------------------------------|
c----------/x3----------------------------------------------------------|
g--7---9---/-----12--10--9---7---9-10-----------------------------------|
d--8--10---/--------0---0--0---0----------------------------------------|
                                  After u play the -10-- then do this

                                         -------------------------|
                                         -------------------------|
                                         -------------------------|
                                         -------------------------|
                                         -10-9-7--12-10-9---------|
                                         -------------------------|


Then once thats all thru then u go

----------------------------------------------------|
----------------------------------------------------|
----------------------------------------------------|
-3--0-0-0-0-0-0-0--3-0-5-7--3--------------9--------|
-3--0-0-0-0-0-0-0--3-0-5-7--3----------7-9---10-9-7-|
-3--0-0-0-0-0-0-0--3-0-5-7--3-----------------------|

                                     this is like the main part to the intro
                       just repeat as many times. Listen to the song and get the  
oh yeah when he say's, To only wish for blinded eyes. the begining goes
-------------------------------------------|
-------------------------------------------|
-------------------------------------------|
-------------------------------------------|
--7-9-10-12---3---5--7--9--10--5---9--7----|
-------------------------------------------| repeat this but listen then go






Like us on Facebook