My Hatred Intro Tab - Trivium






-----------------------------------------------------------------------------
     My Hatred - Trivium
----------------------------------------------------------------------------
Tabbed by:  Sam B
Email: bfmv_55@hotmail.co.uk

Tuning: Normal (EADGBe)

I only have the intro and a bit of the first riff.   This is my favorite 
trivium song and I have been waiting for ages for someone to tab it and no-one
has.  


e|-----------------------------------------------------------------------|
B|-----------------------------------------------------------------------|
G|------------------------------------------------5-55-5-----------------|
D|--2-22-2--44444-555-444--2-22-2--44444-555-444--5-55-5--44444-555-444--|
A|--2-22-2-----------------2-22-2-----------------3-33-3-----------------|
E|--0-00-0-----------------0-00-0-----------------3-33-3-----------------|
P.M   ..                     ..                     ..

e|--------------------------|                e|--------------------------|
B|--------------------------|         On the B|--------------------------|
G|----7-77-7----------------|x4  3rd and 4th G|--------44444-555-444-----|
D|----7-77-7--77777-555-444-|     times play D|-2-22-2-------------------|
A|----5-55-5----------------|           this A|-2-22-2-------------------|
E|----5-55-5----------------|                E|-0-00-0-------------------|
P.M     ..                                        ..

e|-----------------------------------------------------------------------|
B|-----------------------------------------------------------------------|
G|-----------------------------------------------------------------------|
D|------54/5------------54/5-----------54/7--------5----5----7---4~---|
A|------76/7------------76/7-----------76/7--------7----7----9---6~---|
E|--000-------000320-000-------000507-000------000320---00---00---00-----|
P.M ...       ...... ...       ...... ...      ......   ..   ..   ..

Sorry but that all I've got.
This tab is no way near perfect but I guess it will do.

Please send me any comments and please rate this tab as well.
| P.M  Palm Mute
| /    slide up
|     slide down
| ~    vibrato
==========================================================================






Like us on Facebook