Rain Intro Tab - Trivium






This is just the very begining riff...this is my first tab so tell me what ya think and
if its any good ill tab the rest of Rain if not then i wont


Tuning: Drop D

Riff 1 intro
Guitar 1: Matt Heafy

|------------------------------------------|
|------------------------------------------|
|-------------------------------------8--7-|
|-7-----8--5-----7-----8--5-----7-----X--X-|
|-5-----6--3-----5-----6--3-----5-----6--5-|
|------------------------------------------|


|--------------------------------------|
|--------------------------------------|
|--------------------------------------|
|-7-----8--5---------------------------|
|-5-----6--3---------------------------|
|-------------X-X-X-X--X-X-X-X--17/0---|
          P.S[-------------------------|


Riff 1 intro
Guitar 2: Cory Beaulieu

|-----------------------------------------------------|
|-----------------------------------------------------|
|-----------------------------------------------------|
|-----------------------------------------------------|
|---5------------6-3----------------------------------|
|-----0---0-0-0------0-0---0-0-0--0--0-0-0--0--0-0-0--|
P.M[-----------] P.M[---------------------------------|


|--------------------------------------------------------|
|--------------------------------------------------------|
|---------------12 /11-----------------------------------|
|----------------X / X-----------------------------------|
|---5-----------10 / 9-----------------------------------|
|-----0--0-0-0----------0--0--0-0-0--0--0-0-0--0--0-0-0--|
  P.M[--------]     P.M[---------------------------------|


|---------------------------------|
|---------------------------------|
|-8 /10-------10 / 8-------7 / 8--|
|-X / ---------X / --------X / ---|
|-6 / 8--------8 / 6-------5 / 6--|
|---------0------------0----------|
         P.M          P.M






Like us on Facebook