Rising Tab - Trivium






-------------------------------------------------------------------------------
     the rising - trivium
------------------------------------------------------------------------
Tabbed by:haza .t
Email:emailhaza@tiscali.co.uk

Tuning:drop
e|-----------------------------------------------------------------------|
B|------6----8---6-------------------------------------------------------|
G|------5----5---5--------------------10------12--(x 2)------------------|
D|----0----0---0---0-0-0-0-0-0-0-10/12---10/12---------------------------|
A|-----------------------------------------------------------------------|
D|-----------------------------------------------------------------------|

e|-15(17)-15(17)-13/1513---15-13-----13-15(17)-----------------------------|
B|------------------------13-----13-15--------------------------------------|
G|-------------------------------------------------10-12(14)12-10-----------|
D|--------------------------------------------10-12--------------12p-10-h12-|
A|--------------------------------------------------------------------------|
D|--------------------------------------------------------------------------|

(
(not sure about this bit cause its really quite)
e|--------------------------------------------------------------------------|
B|--------------------------------------------------------------------------|
G|--------------------------------------------------------------------------|
D|----7--------------------------------7------------------------------------|(x4)
A|----5--------------------------------5--5-5-5-5-5-5-5-5-5-5-5-5-5-5-------|
D|--0---0-0-0-0-0-0-0-0-0-0-0-0-0-0--0----x-x-x-x-x-x-x-x-x-x-x-x-x-x-------|
        x x x x x x x x x x
e|-------------------------------------------------------------------------|
B|-------------------------------------------------------------------------|
G|--7-7-7-7-7-7-7-7-7-7-7-12-12-10-10-9-9-9-9-9-9-9-9-9-9-7-7-5-5-5--------|
D|------------------------------------------------------------------(x2)---|
A|--5-5-5-5-5-5-5-5-5-5-5-10-10--8--8-7-7-7-7-7-7-7-7-7-7-5-5-3-3-3--------|
D|-------------------------------------------------------------------------|
     solo
e|------------------------------------------13-15(17)-15-13-13h12-12---|
B|--------13-----------------------------13-------------------------15-|
G|-10-h12----------------12-10----10-h12-------------------------------|(next
D|-----------------------12-10-----------------------------------------| line)
A|---------------------------------------------------------------------|
D|---------------------------------------------------------------------|

e|--12-13-15-17-18-20-22-24-26---------------------------------------|
B|-------------------------------------------------------------------|
G|-------------------------------------------------------------------|
D|-------------------------------------------------------------------|
A|-------------------------------------------------------------------|
D|-------------------------------------------------------------------|

now it just repeats itself  until next solo to fast 4 me

| /  slide up
|   slide down
| h  hammer-on
| p  pull-off
| ~  vibrato
| +  harmonic
| x  Mute note






Like us on Facebook