Suffocating Sight Bass Tab - Trivium






SUFFOCATING SIGHT (Bassline)
As recorded by Trivium

I found this song to be kind of boring so the top is the guitar part tabbed for bass and 
is really the bass part have fun either way.


Gtr I (D A D G) - 'Bass'

   Intro
    Q=110
   4/4
   0:00
    S S S S E E S S S S E E   S S S S E E S S S S E E
||--------------------------|-------------------------|
||o-8-8-8-8---8-7-7-7-7---7-|-5-5-5-5---5-7-7-7-7---7-|
||o-5-5-5-5---5-5-5-5-5---5-|-5-5-5-5---5-5-5-5-5---5-|
||--------------------------|-------------------------|


  S S S S +S  S S S S S S S +S  S S S   S S S S +S  S S S S S S S +S  S S S
|-------------------------------------|--------------------------------------||
|-7-7-7-7-(7)-7-7-7-5-5-5-5-(5)-5-5-5-|-8-8-8-8-(8)-8-8-8-7-7-7-7-(7)-7-7-7-o||
|-5-5-5-5-(5)-5-5-5-5-5-5-5-(5)-5-5-5-|-5-5-5-5-(5)-5-5-5-5-5-5-5-(5)-5-5-5-o||
|-0-0-0-0-(0)-0-0-0-0-0-0-0-(0)-0-0-0-|-0-0-0-0-(0)-0-0-0-0-0-0-0-(0)-0-0-0--||


Or

|--------------------------|----------------------------|
||o-------------------------|---------------------------|
||o-------------------------|---------------------------|
||--5-5-5-5---5-5-5-5-5---5-|-5-5-5-5---5-5-5-5-5---5---|


  S S S S +S  S S S S S S S +S  S S S   S S S S +S  S S S S S S S +S  S S S
|-------------------------------------|--------------------------------------||
|-------------------------------------|-------------------------------------o||
|-------------------------------------|-------------------------------------o||
|-0-0-0-0-(0)-0-0-0-0-0-0-0-(0)-0-0-0-|-0-0-0-0-(0)-0-0-0-0-0-0-0-(0)-0-0-0--||

    Q=226
    0:26
    S S E S S E E E E E   S S E S S E E E E E
||----------------------|---------------------|
||o-----------------8---|-----------------7---|
||o-------------5-6---6-|-------------5-6---6-|
||--5-5-5-5-5-5---------|-5-5-5-5-5-5---------|


  E E S S E E E S S S S    S S S S S S  S S S S S S Q    4x
|-----------------------|--------------------------------||
|-5---------7-----------|-12-----------10-----------8---o||
|---5-5-5-5---6-6-6-6-6-|--9-9-9-9-9-9--9-9-9-9-9-9-----o||
|-----------------------|--------------------------------||


Or

  Wx4          S S E S S E H      S S E S S E H      W          +W
|------------|------------------|------------------|----------|--------||
|------------|------------------|------------------|----------|--------||
|------------|------------------|------------------|----------|--------||
|------------|-5-5-5-5-5-5------|-5-5-5-5-5-5------|-0--------|-(0)----||


||-------------------|------------------|
||o------------------|------------------|
||o------------------|------------------|
||--5-5-5-5-5-5------|-5-5-5-5-5-5------|


  S S E S S E H      S S E S S E S S E S S E
|------------------|--------------------------||
|------------------|-------------------------o||
|------------------|-------------------------o||
|-0-0-0-0-0-0------|-1-1-1-1-1-1-4-4-4-4-4-4--||

   Verse
   0:35
    S S E S S E E E E E   S S E S S E E E E E
||----------------------|---------------------|
||o-----------------8---|-----------------7---|
||o-------------5-6---6-|-------------5-6---6-|
||--5-5-5-5-5-5---------|-5-5-5-5-5-5---------|


  E E S S E E E S S S S    S S S S S S  S S S S S S Q
|-----------------------|--------------------------------||
|-5---------7-----------|-12-----------10-----------8---o||
|---5-5-5-5---6-6-6-6-6-|--9-9-9-9-9-9--9-9-9-9-9-9-----o||
|-----------------------|--------------------------------||


Or


||-------------------|------------------|
||o------------------|------------------|
||o------------------|------------------|
||--5-5-5-5-5-5------|-5-5-5-5-5-5------|


  S S E S S E H      S S E S S E S S E S S E
|------------------|--------------------------||
|------------------|-------------------------o||
|------------------|-------------------------o||
|-0-0-0-0-0-0------|-1-1-1-1-1-1-4-4-4-4-4-4--||


   Pre-Chorus
   0:43
    E E S S E E S S S S E   E E S S E E S S S S E
||------------------------|-----------------------|
||o-7-------------------7-|-7-------------------7-|
||o-5-5-5-5-5-5-5-5-5-5-5-|-4-4-4-4-4-4-4-4-4-4-4-|
||------------------------|-----------------------|


  E E S S E E S S S S E    E E S S E  E E S S E     4x
|-----------------------|---------------------------||
|-8-------------------8-|-10---------11------------o||
|-6-6-6-6-6-6-6-6-6-6-6-|--8-8-8-8-8--9-9-9-9-9----o||
|-----------------------|---------------------------||


  1:01
   E  S  S  E  E  S  S  E  S  S  E    E  S  S  E  E  S  S  E  S  S  E
|-12-12-12-12-12-12-12-12-12-12-12-|-12-12-12-12-12-12-12-12-12-12-12--|
|----------------------------------|-----------------------------------|
|----------------------------------|-----------------------------------|
|----------------------------------|-----------------------------------|


Or


    E E E E E E E E   E E E E E E E E
||------------------|-----------------|
||o-----------------|-----------------|
||o-5-5-5-5-5-5-5-5-|-4-4-4-4-4-4-4-4-|
||------------------|-----------------|

  E E E E E E E E   E E E E E E E E  4x Wx2
|-----------------|------------------||---------||
|-----------------|-----------------o||---------||
|-6-6-6-6-6-6-6-6-|-8-8-8-8-9-9-9-9-o||---------||
|-----------------|------------------||---------||

   Verse
   1:03
    S S E S S E E E E E   S S E S S E E E E E
||----------------------|---------------------|
||o-----------------8---|-----------------7---|
||o-------------5-6---6-|-------------5-6---6-|
||--5-5-5-5-5-5---------|-5-5-5-5-5-5---------|


  E E S S E E E S S S S    S S S S S S  S S S S S S Q
|-----------------------|--------------------------------||
|-5---------7-----------|-12-----------10-----------8---o||
|---5-5-5-5---6-6-6-6-6-|--9-9-9-9-9-9--9-9-9-9-9-9-----o||
|-----------------------|--------------------------------||


Or


   S S E S S E H      S S E S S E H
||-------------------|------------------|
||o------------------|------------------|
||o------------------|------------------|
||--5-5-5-5-5-5------|-5-5-5-5-5-5------|


  S S E S S E H      S S E S S E S S E S S E
|------------------|--------------------------||
|------------------|-------------------------o||
|------------------|-------------------------o||
|-0-0-0-0-0-0------|-1-1-1-1-1-1-4-4-4-4-4-4--||


   Pre-Chorus
   1:12
    E E S S E E S S S S E   E E S S E E S S S S E
||------------------------|-----------------------|
||o-7-------------------7-|-7-------------------7-|
||o-5-5-5-5-5-5-5-5-5-5-5-|-4-4-4-4-4-4-4-4-4-4-4-|
||------------------------|-----------------------|


  E E S S E E S S S S E    E E S S E  E E S S E     4x
|-----------------------|---------------------------||
|-8-------------------8-|-10---------11------------o||
|-6-6-6-6-6-6-6-6-6-6-6-|--8-8-8-8-8--9-9-9-9-9----o||
|-----------------------|---------------------------||


   1:28
   E  S  S  E  E  S  S  E  S  S  E    E  S  S  E  E  S  S  E  S  S  E
|-12-12-12-12-12-12-12-12-12-12-12-|-12-12-12-12-12-12-12-12-12-12-12--|
|----------------------------------|-----------------------------------|
|----------------------------------|-----------------------------------|
|----------------------------------|-----------------------------------|


Or


    E E E E E E E E   E E E E E E E E
||------------------|-----------------|
||o-----------------|-----------------|
||o-5-5-5-5-5-5-5-5-|-4-4-4-4-4-4-4-4-|
||------------------|-----------------|


                                        D.S.
  E E E E E E E E   E E E E E E E E  4x Wx2
|-----------------|------------------||---------||
|-----------------|-----------------o||---------||
|-6-6-6-6-6-6-6-6-|-8-8-8-8-9-9-9-9-o||---------||
|-----------------|------------------||---------||

   Chorus
   1:31
    Q.   Q.   Q    H.      Q    Q.   Q.   Q    H    Q  Q
||-------7-------|------------|-7----5-------|---------5--|
||o-5---------8--|-7-------7--|-----------8--|-7----7-----|
||o--------------|------------|--------------|------------|
||---------------|------------|--------------|------------|


                                         |-3-|
  Q.   Q.   Q    H.      Q     Q.   Q.   E E E   H    Q  Q
|------7-------|------------|-10----8----7-8-7-|-7----5------||
|-5---------8--|-7-------7--|------------------|---------8--o||
|--------------|------------|------------------|------------o||
|--------------|------------|------------------|-------------||


Or


    Q.   E Q  Q    Q.   E Q  Q    Q.   E Q  Q    Q.   E Q  Q   4x
||---------------|--------------|--------------|---------------||
||o--------------|--------------|--------------|--------------o||
||o--------------|--------------|--------------|--------------o||
||--5----5-5--5--|-0----0-0--0--|-1----1-1--1--|-3----3-3--3---||


 Break
  1:48
  Q=160
  H    H      H    H
|-----------|-----------||
|-----------|-----------||
|-----------|-----------||
|-5----4----|-1----0----||

    1:52
    S S E S S E S S E S S E   S S E S S E S S E S S E
||--------------------------|-------------------------|
||o-------------------------|-------------------------|
||o-------------------------|-------------------------|
||--5-5-5-5-5-5-5-5-5-5-5-5-|-5-5-5-5-5-5-5-5-5-5-5-5-|


  |-3-| |-3-|   |-3-| |-3-|
  q q q q q q   q q q q q q
|-------------|--------------||
|-------------|-------------o||
|-------------|-------------o||
|-4-4-4-4-4-4-|-4-4-4-4-4-4--||


   Bridge
   2:04
    S S E S S E S S E S S E   S S E S S E S S E S S E
||--------------------------|-------------------------|
||o-------------------------|-------------------------|
||o-------------------------|-------------------------|
||--5-5-5-5-5-5-5-5-5-5-5-5-|-5-5-5-5-5-5-5-5-5-5-5-5-|


  |-3-| |-3-|   |-3-| |-3-|
  q q q q q q   q q q q q q
|-------------|--------------||
|-------------|-------------o||
|-------------|-------------o||
|-4-4-4-4-4-4-|-4-4-4-4-4-4--||

    2:16
    S E S E Q.   Q    S E S E Q.    E +E
||------------------|----------------------|
||o-----------------|----------------------|
||o-----------------|----------------------|
||--5-5-5-5---------|-5-5-5-5------/8-(8)-|


  S E S E Q.   Q    S E S E E S E S E E  4x
|-----------------|----------------------||
|-----------------|---------------------o||
|-----------------|---------------------o||
|-0-0-0-0---------|-1-1-1-1---4-4-4-4----||


 Guitar Solo
    2:40
                                                                  ~~~~~~~
   Q  Q  Q   Q    Q  Q   Q  Q    Q  +Q     H       Q   +E      S  S  +H
|---------------|-8--7---------|----------------|-14--(14)b15-12-11-(11)----|
|-----7--8--10--|-------10--8--|-7--(7)b8r=7----|---------------------------|
|-10------------|--------------|----------------|---------------------------|
|---------------|--------------|----------------|---------------------------|


  S S S S S S S S  S S S S S S S  S    S  S S S S S  S  S  S  S  S S S S S S
|-------5-7-5---5-10-8-7-5---7-8-10S|=12-10-8-7-5-7-10-12S14-12-10-8-7-5-----|
|-5-7-8-------8------------8--------|------------------------------------8-7-|
|-----------------------------------|----------------------------------------|
|-----------------------------------|----------------------------------------|


   Q      Q   Q  Q    Q  Q  Q   Q
|-14b15--14--12--8--|-7--------11--|
|-------------------|----8--7------|
|-------------------|--------------|
|-------------------|--------------|


Or

    S S S S S S S S S S S S S S S S   S S S S S S S S S S S S S S S S
||----------------------------------|---------------------------------|
||o---------------------------------|---------------------------------|
||o---------------------------------|---------------------------------|
||--5-5-5-5-5-5-5-5-5-5-5-5-5-5-5-5-|-5-5-5-5-5-5-5-5-7-7-7-7-8-8-8-8-|


  S S S S S S S S S S S S S S S S   S S S S S S S S S S S S S S S S
|---------------------------------|----------------------------------||
|---------------------------------|---------------------------------o||
|---------------------------------|---------------------------------o||
|-4-4-4-4-4-4-4-4-4-4-4-4-4-4-4-4-|-1-1-1-1-1-1-1-1-4-4-4-4-4-4-4-4--||


   Bridge
   2:53
    Q=226                                      1.
    S S E S S E E E E E   S S E S S E E E E E   E E S S E E E S S S S
||----------------------|---------------------|-----------------------|
||o-----------------8---|-----------------7---|-5---------7-----------|
||o-------------5-6---6-|-------------5-6---6-|---5-5-5-5---6-6-6-6-6-|
||--5-5-5-5-5-5---------|-5-5-5-5-5-5---------|-----------------------|


                                  2.
   S S S S S S  S S S S S S Q      Q  H.        W
|-------------------------------||------------|------||
|-12-----------10-----------8--o||------------|------||
|--9-9-9-9-9-9--9-9-9-9-9-9----o||------------|------||
|-------------------------------||-0----------|------||


Or


  Wx4          S S E S S E H      S S E S S E H      Q  H.        W
|------------|------------------|------------------|------------|------||
|------------|------------------|------------------|------------|------||
|------------|------------------|------------------|------------|------||
|------------|-5-5-5-5-5-5------|-5-5-5-5-5-5------|-0----------|------||


 Pre-Chorus
   3:01
  H    H      W          H     H      H    H
|-----------|----------|------------|-----------|
|-----------|----------|------------|-----------|
|-----------|----------|------------|-----------|
|-5----8----|-7--------|-8----10----|-0----4----|


  H    H      W          H     H      W
|-----------|----------|------------|------||
|-----------|----------|------------|------||
|-----------|----------|------------|------||
|-5----8----|-7--------|-8----10----|------||


   Out-Chorus
   3:10
    Q.   Q.    Q    H.      Q    Q.   Q.    Q    H    Q  Q
||-------9--------|------------|-9----7--------|---------7--|
||o-7---------10--|-9-------9--|-----------10--|-9----9-----|
||o---------------|------------|---------------|------------|
||----------------|------------|---------------|------------|


                                           |-3--|
  Q.   Q.    Q    H.      Q     Q.    Q.   E  E E   H    Q   Q   4x W
|------9--------|------------|-12----10----9-10-9-|-9----7-------||-------*|
|-7---------10--|-9-------9--|--------------------|---------10--o||-------*|
|---------------|------------|--------------------|-------------o||-------*|
|---------------|------------|--------------------|--------------||-7----*|


Or


    Q.   E Q  Q    Q.   E Q  Q    Q.   E Q  Q    Q.   E Q  Q   8x W
||---------------|--------------|--------------|---------------||-------*|
||o--------------|--------------|--------------|--------------o||-------*|
||o--------------|--------------|--------------|--------------o||-------*|
||--7----7-7--7--|-2----2-2--2--|-3----3-3--3--|-5----5-5--5---||-7----*|

Duration Legend
---------------
W - whole; H - half; Q - quarter; E - 8th; S - 16th; T - 32nd; X - 64th; a - acciaccatura
+ - note tied to previous; . - note dotted; .. - note double dotted
Uncapitalized letters represent notes that are staccato (1/2 duration)
Irregular groupings are notated above the duration line
Duration letters will always appear directly above the note/fret number it represents the
duration for.  Duration letters with no fret number below them represent rests.  Multi-
bar rests are notated in the form Wxn, where n is the number of bars to rest for.  Low
melody durations appear below the staff

Tablature Legend
----------------
 h   - hammer-on
 p   - pull-off
 b   - bend
 pb  - pre-bend
 r   - bend release (if no number after the r, then release immediately)
 /  - slide into or out of (from/to "nowhere")
 s   - legato slide
 S   - shift slide
 - natural harmonic
[n]  - artificial harmonic
n(n) - tapped harmonic
 ~   - vibrato
 tr  - trill
 T   - tap
 TP  - trem. picking
 PM  - palm muting
n/  - tremolo bar dip; n = amount to dip
 n  - tremolo bar down
 n/  - tremolo bar up
/n  - tremolo bar inverted dip
 =   - hold bend; also acts as connecting device for hammers/pulls
  - volume swell (louder/softer)
 x   - on rhythm slash represents muted slash
 o   - on rhythm slash represents single note slash

Misc Legend
-----------
 |  - bar
||  - double bar
||o - repeat start
o|| - repeat end
*|  - double bar (ending)
 :  - bar (freetime)
 $  - Segno
 &  - Coda
Tempo markers -  = BPM(8/16=s8/s16), where s8 = swing 8ths, s16 = swing 16ths






Like us on Facebook