This World Cant Tear Us Apart Tab - Trivium






here it is ..oh btw its a seven string so mkae sure you take note of that before learning it.

intro corey 2x
|------------------------------------------------|
|------------------------------------------------|
|-------4~-----------------4~--------------------|
|-2-2-1-----2-2-1----2-2-1-----2-2-1-1-6-6-4-4---|
|-----------------2------------------------------|
|------------------------------------------------|
|------------------------------------------------|
Matt 2x
|------------------|------------------|-----------------|-----------------|
|------------------|------------------|-----------------|-----------------|
|------------------|------------------|-----------------|-----------------|
|------------------|------------------|-7-7-7-7-7-7-7-7-|-----------------|
|-4-4-4-4-4-4-4-4--|-2-2-2-2-2-2-2-2--|-7-7-7-7-7-7-7-7-|-----------------|
|-4-4-4-4-4-4-4-4--|-2-2-2-2-2-2-2-2--|-5-5-5-5-5-5-5-5-|-2-2-2-2---4-----|
|-2-2-2-2-2-2-2-2--|-0-0-0-0-0-0-0-0--|-----------------|-0-0-0-0-5---7-4-|


Verse
Matt and Corey
|-------------------|-------------------|-------------------|
|-------------------|-------------------|-------------------|
|-------------------|-------------------|-------------------|
|-------------------|-------------------|-------------------|
|-------------------|-----------------7-|---7-------7-7-7---|
|-4-4-------4-4-4-2-|---2-------2-2-2-5-|---5-------5-5-5-2-|
|-2-2-------2-2-2-0-|---0-------0-0-0---|-----------------0-|

|-----------------------|-------------------------------|
|-----------------------|-------------------------------|
|-----------------------|-------------------------------|
|-----------------------|-------------------------------|
|-----------------------|-------4-4-4-4-4-4-4-4---------|
|---2----------4----2---|-4--4------------------4-4-4-4-|
|---0--0-0-0-0-5----4---|-2--2------------------2-2-2-4-|

|--------------------------------|--------------------------------|
|--------------------------------|--------------------------------|
|--------------------------------|--------------------------------|
|--------------------------------|--------------------------------|
|------------------------------7-|-----7------------------7-7-7---|
|-----4--4-4-4-4-4-4-4-4-4-4-4-5-|-----5--5-5-5-5-5-5-5-5-5-5-5-4-|
|-----4------------------4-4-4---|------------------------------4-|

|------------------------|
|------------------------|
|------------------------|
|------------------------|
|------------------------|
|-----4----------4---2---|
|-----4--0-0-0-0-5---4---|

Pre Chorus 2x
Corey 
|------------------------|------------------------|------------------------|
|------------------------|------------------------|------------------------|
|--6--6----------8---9---|--6--6----------8---9---|--6--6----------8---9---|
|--x--x----------x---x---|--x--x----------x---x---|--x--x----------x---x---|
|--4--4--4-4-4-4-6---7---|--4--4--6-6-6-6-6---7---|--4--4--4-4-4-4-6---7---|
|------------------------|------------------------|------------------------|
|------------------------|------------------------|------------------------|

|----------------|
|----------------|
|--11-11-13--13--|
|--x--x---x---x--|
|--9--9--11--11--|
|----------------|
|----------------|

Pre chorus 2 x
Matt
|-----------------------------|-------------------------------|
|-----------------------------|-------------------------------|
|-----------------------------|-------------------------------|
|-----------------------------|-------------------------------|
|-------4-4-4-4-4-4-4---------|-------6-6-6-6-6-6-6-6---------|
|-4--4----------------4-4-4-6-|----6------------------6-6-6-7-|
|-2--2----------------2-2-2-4-|----4------------------4-4-4-5-|

|-------------------------------|-------------------|
|-------------------------------|-------------------|
|-------------------------------|-11-11---13---13---|
|-------------------------------|--x--x----x----x---|
|-------7-7-7-7-7-7-7-7---------|--9--9---11---11---|
|----7------------------7-7-7-4-|-------------------|
|----5------------------5-5-5-4-|-------------------|

Chorus same as intro

Bridge 2x
Matt and Corey
|---------------------------------|---------------------------------|
|---------------------------------|---------------------------------|
|---------------------------------|---------------------------------|
|---------------------------------|---------------------------------|
|---------------------------------|---------------------------------|
|---------------------------------|---------------------------------|
|-2-2-2-2-2-2-0-2-4-4-4-4-4-4-2-4-|-5-5-5-5-5-5-4-5-7-7-7-7-9-9-9-9-|

|---------------------------------|---------------------------------|
|---------------------------------|---------------------------------|
|---------------------------------|---------------------------------|
|---------------------------------|-----------------6-6-6-6-4-4-4-4-|
|---------------------------------|-4-4-4-4-4-4-7-7-----------------|
|-5-5-5-5-5-5-4-5-7-7-7-7-7-7-5-7-|---------------------------------|
|---------------------------------|---------------------------------|

Corey solo
|-----------------------------------------------------------------------|
|-----------------------------------------------------------------------|
|-----------------------------------------------------11-13-14-11-13-14-|
|-----------------------------------11-13-14-11-13-14-------------------|
|-----------------11-13-14-11-13-14-------------------------------------|
|-9-11-12-9-11-12-------------------------------------------------------|
|-----------------------------------------------------------------------|

|-------------------------------------------------------12-14-16-14-16-17-|
|-------------------------------------12-14-16-12-14-16-------------------|
|-------------------11-13-14-11-13-14-------------------------------------|
|-11-13-14-11-13-14-------------------------------------------------------|
|-------------------------------------------------------------------------|
|-------------------------------------------------------------------------|
|-------------------------------------------------------------------------|

|-17-16-14-17-16-14-------------------------------------------------------|
|-------------------17-16-14-17-16-14-------------------------------------|
|-------------------------------------16-14-13-16-14-13-------------------|
|-------------------------------------------------------16-14-13-16-14-13-|
|-------------------------------------------------------------------------|
|-------------------------------------------------------------------------|
|-------------------------------------------------------------------------|

|-------------------------------------------------------------------------|
|-------------------------------------------------------------------------|
|-16-14-13-16-14-13-------------------------------------------------------|
|-------------------16-14-13-16-14-13-------------------------------------|
|-------------------------------------14-12-11-14-12-11-------------------|
|-------------------------------------------------------14-12-11-14-12-11-|
|-------------------------------------------------------------------------|

Matt Solo
|-----------------------------------|-----------16--------------12-19-14---|
|--------14----------------17-------|---------16--16----------12--------16-|
|---------x--------------16--16-----|-------13------13------13-----------16|
|-------11-11----------14------14---|-----13----------13--13---------------|
|-----11-----11--------x--------x---|---14--------------14-----------------|
|---12---------12-12-16----------16-|-16-----------------------------------|
|-14--------------------------------|--------------------------------------|

|---------16-21-16------------16-21-16-14---|-14fb---16-19-19fb--19fb------|
|-----------------17---------------------14-|------------------------------|
|-------18----------18------18--------------|------------------------------|
|-----18------------------18----------------|------------------------------|
|---19------------------19------------------|------------------------------|
|-21------------------21--------------------|------------------------------|
|-------------------------------------------|------------------------------|

Bridge 
Corey
|------------------|-------------------|-----------------|---------------|
|------------------|-------------------|-----------------|---------------|
|------------------|-------------------|-----------------|---------------|
|------------------|-------------------|-----------------|---------------|
|-------6---4------|-------4---4h6p4---|-7-----7---7---7-|-9-------------|
|-------4---2---0--|-------2---2h4p2-0-|-5-5-5-5-5-5-5-5-|-7--------4----|
|-2-2-2---2---2----|-0-0-0---0---------|-----------------|-0-0-0-0-5-7-4-|

Key change chorus (slow one)2x

|-----------------|-----------------|-----------------|-----------------|
|-----------------|-----------------|-----------------|-----------------|
|-----------------|-----------------|-7-7-7-7-6-6-6-6-|-4-4-4-4-4-4-4-4-|
|-4-4-4-4-4-4-4-4-|-2-2-2-2-2-2-2-2-|-x-x-x-x-x-x-x-x-|-x-x-x-x-x-x-x-x-|
|-4-4-4-4-4-4-4-4-|-2-2-2-2-2-2-2-2-|-5-5-5-5-4-4-4-4-|-2-2-2-2-2-2-2-2-|
|-2-2-2-2-2-2-2-2-|-0-0-0-0-0-0-0-0-|-----------------|-----------------|
|-----------------|-----------------|-----------------|-----------------|

then chorus 
then key change chorus (jsut paly the lead part on the string above
Bridge 
outro solo Corey (bridge is backing)
|-------------------------------------------------|
|------9-12-9------9-12-9------9-12-9------9-12-9-|
|-11fb--------11fb--------11fb--------11fb--------|
|-------------------------------------------------|
|-------------------------------------------------|
|-------------------------------------------------|
|-------------------------------------------------|

|-------------------9-11---11qb--11-9-11-9------------------|
|-x---------10-12-14----------------------12-14-12----------|
|---9-11-13---------------------------------------13-14-13--|
|-----------------------------------------------------------|
|-----------------------------------------------------------|
|-----------------------------------------------------------|
|-----------------------------------------------------------|

|--------12-------|------------------------|
|-12fb------12fb--|----------12-10-9~~~~---|
|-----------------|------------------------|
|-----------------|------------------------|
|-----------------|------------------------|
|-----------------|------------------------|
|-----------------|------------------------|

|-12-9-------12--14--12--14----14-----14---|
|-------10-14--14--14--14--16----16-----16-|
|-----13---------------------16-----16-----|
|------------------------------------------|
|------------------------------------------|
|------------------------------------------|
|------------------------------------------|

|-16----16----16---16---------------------16-|
|---17----17----17---17-----------------17---|
|-----18----18---------18-------------18-----|
|------------------------18---------18-------|
|--------------------------16-x-x-16---------|
|--------------------------------------------|
|--------------------------------------------|

|-21--------21-----21--19----19---|-21--------21-----21---21-----------
|---22p19-19--22p19--22--21----21-|---22-19-22--22-19--22---22-19---19-
|--------------------------21-----|-----------------------------18-18--
|---------------------------------|------------------------------19----
|---------------------------------|------------------------------------
|---------------------------------|------------------------------------
|---------------------------------|------------------------------------

-----------------|-19hb-fb(21)-------|------------------------|
----------19--22-|-------------------|------------------------|
----18-----------|-------------------|------------------------|
-19----19--------|-------------------|------------------------|
-----------------|-------------------|------------------------|
-----------------|-----------------9-|-7-9-9-9-9-9-9-9--------|
-----------------|-------------------|-----------------2-----|









Like us on Facebook