To The Rats Tab - Trivium






Tabbed by Erik
ewlord-1492@hotmail.com

Tuning: EADGBe

The whole song is in order and i got everything except the solos (sorry)
Use really heavy gain
Intro:
-------------------------------------|
-------------------------------------|
-------------------------------------|
-------------------------------------|
--3-222222-6-222222-3-2222-5-2222-3--|
-------------------------------------|

-------------------------------------|
-------------------------------------|
-------------------------------------|
-------------------------------------|
--3-222222-6-222222-3-2222-5-2222-3--|
-------------------------------------|

-------------------------------------|
-------------------------------------|
-------------------------------------|
-------------------------------------|
--3-222222-6-222222-3-2222-5-2222-3--|
-------------------------------------|

-------------------------------------|
-------------------------------------|
-------------------------------------|
-------------------------------------|
--3-222222-6-222222-3-2222-5-2222-3--|
-------------------------------------|

----------------------------------------------|
----------------------------------------------|
----------------------------------------------|
--------5-4----------5--------7-4----------8--|
--2-0-2-3-2--2222222-3--2-0-2-5-2--2222222-6--|
----------------------------------------------|

----------------------------------------------|
----------------------------------------------|
----------------------------------------------|
--------5-4----------5--------8-4----------7--|
--2-0-2-3-2--2222222-3--2-0-2-6-2--2222222-5--|
----------------------------------------------|

First Verse:
-------------------------------------|
-------------------------------------|
-------------------------------------|
-------------------------------------|
--3-222222-6-222222-3-2222-5-2222-3--|
-------------------------------------|

-------------------------------------|
-------------------------------------|
-------------------------------------|
-------------------------------------|
--3-222222-6-222222-3-2222-5-2222-3--|
-------------------------------------|

-------------------------------------|
-------------------------------------|
-------------------------------------|
-------------------------------------|
--3-222222-6-222222-3-2222-5-2222-3--|
-------------------------------------|

-------------------------------------|
-------------------------------------|
-------------------------------------|
-------------------------------------|
--3-222222-6-222222-3-2222-5-2222-3--|
-------------------------------------|

----------------------------------------------|
----------------------------------------------|
----------------------------------------------|
--------5-4----------5--------7-4----------8--|
--2-0-2-3-2--2222222-3--2-0-2-5-2--2222222-6--|
----------------------------------------------|

----------------------------------------------|
----------------------------------------------|
----------------------------------------------|
--------5-4----------5--------8-4----------7--|
--2-0-2-3-2--2222222-3--2-0-2-6-2--2222222-5--|
----------------------------------------------|

----------------------------------------------|
----------------------------------------------|
----------------------------------------------|
----------------------------------------------|
--------5-4----------5--------7-4----------8--|
--2-0-2-3-2--2-2-2-2-3--2-0-2-5-2--2-2-2-2-6--|

----------------------------------------------|
----------------------------------------------|
----------------------------------------------|
----------------------------------------------|
--------5-4----------5--------8-4----------7--|
--2-0-2-3-2--2-2-2-2-3--2-0-2-6-2--2-2-2-2-5--|

Pre Chorus:
--------------------------|
--------------------------|
--------------------------|
--3--2--3--3-3-3-3-3-3-3--|
--1--0--1--1-1-1-1-1-1-1--|
--------------------------|

Chorus
------------------------------------------------------------------------|
------------------------------------------------------------------------|
------------------------------------------------------------------------|
--5--5--5--5-5-5-5-5-5-5-2--2--2--2-2-2-2-2-2-2-7--7--7-7-7-5--5--5-5-5-|
--3--3--3--3-3-3-3-3-3-3-0--0--0--0-0-0-0-0-0-0-5--5--5-5-5-3--3--3-3-3-|
------------------------------------------------------------------------|

--------------------------------------------------------------------------------------------|
--------------------------------------------------------------------------------------------|
--------------------------------------------------------------------------------------------|
--3--3--3--3-3-3-3-3-3-3-5--5--5--5-5-5-5-5-5-5-2--2--2-2-2-2-2-2-2-7--7--7-7-7-5--5--5-5-5-|
--1--1--1--1-1-1-1-1-1-1-3--3--3--3-3-3-3-3-3-3-0--0--0-0-0-0-0-0-0-5--5--5-5-5-3--3--3-3-3-|
--------------------------------------------------------------------------------------------|

Second Verse:
-------------------------------------|
-------------------------------------|
-------------------------------------|
-------------------------------------|
--3-222222-6-222222-3-2222-5-2222-3--|
-------------------------------------|

-------------------------------------|
-------------------------------------|
-------------------------------------|
-------------------------------------|
--3-222222-6-222222-3-2222-5-2222-3--|
-------------------------------------|

-------------------------------------|
-------------------------------------|
-------------------------------------|
-------------------------------------|
--3-222222-6-222222-3-2222-5-2222-3--|
-------------------------------------|

-------------------------------------|
-------------------------------------|
-------------------------------------|
-------------------------------------|
--3-222222-6-222222-3-2222-5-2222-3--|
-------------------------------------|

----------------------------------------------|
----------------------------------------------|
----------------------------------------------|
--------5-4----------5--------7-4----------8--|
--2-0-2-3-2--2222222-3--2-0-2-5-2--2222222-6--|
----------------------------------------------|

----------------------------------------------|
----------------------------------------------|
----------------------------------------------|
--------5-4----------5--------8-4----------7--|
--2-0-2-3-2--2222222-3--2-0-2-6-2--2222222-5--|
----------------------------------------------|

----------------------------------------------|
----------------------------------------------|
----------------------------------------------|
----------------------------------------------|
--------5-4----------5--------7-4----------8--|
--2-0-2-3-2--2-2-2-2-3--2-0-2-5-2--2-2-2-2-6--|

----------------------------------------------|
----------------------------------------------|
----------------------------------------------|
----------------------------------------------|
--------5-4----------5--------8-4----------7--|
--2-0-2-3-2--2-2-2-2-3--2-0-2-6-2--2-2-2-2-5--|

Pre Chorus:
--------------------------|
--------------------------|
--------------------------|
--3--2--3--3-3-3-3-3-3-3--|
--1--0--1--1-1-1-1-1-1-1--|
--------------------------|

Chorus:
------------------------------------------------------------------------|
------------------------------------------------------------------------|
------------------------------------------------------------------------|
--5--5--5--5-5-5-5-5-5-5-2--2--2--2-2-2-2-2-2-2-7--7--7-7-7-5--5--5-5-5-|
--3--3--3--3-3-3-3-3-3-3-0--0--0--0-0-0-0-0-0-0-5--5--5-5-5-3--3--3-3-3-|
------------------------------------------------------------------------|

--------------------------------------------------------------------------------------------|
--------------------------------------------------------------------------------------------|
--------------------------------------------------------------------------------------------|
--3--3--3--3-3-3-3-3-3-3-5--5--5--5-5-5-5-5-5-5-2--2--2-2-2-2-2-2-2-7--7--7-7-7-5--5--5-5-5-|
--1--1--1--1-1-1-1-1-1-1-3--3--3--3-3-3-3-3-3-3-0--0--0-0-0-0-0-0-0-5--5--5-5-5-3--3--3-3-3-|
--------------------------------------------------------------------------------------------|

Bridge:
----------------------------------------------------------------|
----------------------------------------------------------------|
----------------------------------------------------------------|
-------------------------------------------------7b-------------|
-------------------------------------------------5b-------------|
-000-000-000-000-000-000-000-000-000-000-000-000-------3-5-2-3--|

----------------------------------------------------------------|
----------------------------------------------------------------|
----------------------------------------------------------------|
-------------------------------------------------7b-------------|
-------------------------------------------------5b-------------|
-000-000-000-000-000-000-000-000-000-000-000-000-------3-5-2-3--|

"This is to the rats.."
----------------------------------------------------------------|
----------------------------------------------------------------|
----------------------------------------------------------------|
-------------------------------------------------7b-------------|
-------------------------------------------------5b-------------|
-000-000-000-000-000-000-000-000-000-000-000-000-------3-5-2-3--|

----------------------------------------------------------------|
----------------------------------------------------------------|
----------------------------------------------------------------|
-------------------------------------------------7b-------------|
-------------------------------------------------5b-------------|
-000-000-000-000-000-000-000-000-000-000-000-000-------3-5-2-3--|

sorry guys, but the solo's too hard for me
maybe somebody else can give it a try
but here's the rhythm.
Rhythm behind solo:
--------------------------------|
--------------------------------|
--------------------------------|
--------------------------------|
-----------------------------5--|
-0-1-0-1-0-1-0-1-0-1-0-1-0-1-3--|

--------------------------------|
--------------------------------|
--------------------------------|
--------------------------------|
-----------------------------5--|
-0-1-0-1-0-1-0-1-0-1-0-1-0-1-3--|

--------------------------------|
--------------------------------|
--------------------------------|
--------------------------------|
-----------------------------5--|
-0-1-0-1-0-1-0-1-0-1-0-1-0-1-3--|

--------------------------------|
--------------------------------|
--------------------------------|
--------------------------------|
-----------------------------5--|
-0-1-0-1-0-1-0-1-0-1-0-1-0-1-3--|

"This is to the rats.."
----------------------------------------------------------------|
----------------------------------------------------------------|
----------------------------------------------------------------|
-------------------------------------------------7b-------------|
-------------------------------------------------5b-------------|
-000-000-000-000-000-000-000-000-000-000-000-000-------3-5-2-3--|

----------------------------------------------------------------|
----------------------------------------------------------------|
----------------------------------------------------------------|
-------------------------------------------------7b-------------|
-------------------------------------------------5b-------------|
-000-000-000-000-000-000-000-000-000-000-000-000-------3-5-2-3--|

same rhythm for the second solo:
--------------------------------|
--------------------------------|
--------------------------------|
--------------------------------|
-----------------------------5--|
-0-1-0-1-0-1-0-1-0-1-0-1-0-1-3--|

--------------------------------|
--------------------------------|
--------------------------------|
--------------------------------|
-----------------------------5--|
-0-1-0-1-0-1-0-1-0-1-0-1-0-1-3--|

--------------------------------|
--------------------------------|
--------------------------------|
--------------------------------|
-----------------------------5--|
-0-1-0-1-0-1-0-1-0-1-0-1-0-1-3--|

--------------------------------|
--------------------------------|
--------------------------------|
--------------------------------|
-----------------------------5--|
-0-1-0-1-0-1-0-1-0-1-0-1-0-1-3--|

-------------------------------------|
-------------------------------------|
-------------------------------------|
-------------------------------------|
--3-222222-6-222222-3-2222-5-2222-3--|
-------------------------------------|

Third Verse:
----------------------------------------------|
----------------------------------------------|
----------------------------------------------|
----------------------------------------------|
--------5-4----------5--------7-4----------8--|
--2-0-2-3-2--2-2-2-2-3--2-0-2-5-2--2-2-2-2-6--|

----------------------------------------------|
----------------------------------------------|
----------------------------------------------|
----------------------------------------------|
--------5-4----------5--------8-4----------7--|
--2-0-2-3-2--2-2-2-2-3--2-0-2-6-2--2-2-2-2-5--|

----------------------------------------------|
----------------------------------------------|
----------------------------------------------|
----------------------------------------------|
--------5-4----------5--------7-4----------8--|
--2-0-2-3-2--2-2-2-2-3--2-0-2-5-2--2-2-2-2-6--|

----------------------------------------------|
----------------------------------------------|
----------------------------------------------|
----------------------------------------------|
--------5-4----------5--------8-4----------7--|
--2-0-2-3-2--2-2-2-2-3--2-0-2-6-2--2-2-2-2-5--|

Pre Chorus:
--------------------------|
--------------------------|
--------------------------|
--3--2--3--3-3-3-3-3-3-3--|
--1--0--1--1-1-1-1-1-1-1--|
--------------------------|

Chorus:
------------------------------------------------------------------------|
------------------------------------------------------------------------|
------------------------------------------------------------------------|
--5--5--5--5-5-5-5-5-5-5-2--2--2--2-2-2-2-2-2-2-7--7--7-7-7-5--5--5-5-5-|
--3--3--3--3-3-3-3-3-3-3-0--0--0--0-0-0-0-0-0-0-5--5--5-5-5-3--3--3-3-3-|
------------------------------------------------------------------------|

-----------------------------------------------------------------------------------------|
-----------------------------------------------------------------------------------------|
-----------------------------------------------------------------------------------------|
--3--3--3--3-3-3-3-3-3-3-5--5--5--5-5-5-5-5-5-5-2--2--2-2-2-2-2-2-2-7--7--7-7-7-5--5-5-5-|
--1--1--1--1-1-1-1-1-1-1-3--3--3--3-3-3-3-3-3-3-0--0--0-0-0-0-0-0-0-5--5--5-5-5-3--3-3-3-|
-----------------------------------------------------------------------------------------|

Final Chorus (slower):
-----------------------------------------------------|
-----------------------------------------------------|
-----------------------------------------------------|
--3--3-3-3-3-3-5--5-5-5-5-5-2--2-2-2-2-2-7---7-5---5-|
--1--1-1-1-1-1-3--3-3-3-3-3-0--0-0-0-0-0-5---5-3---3-|
-----------------------------------------------------|

End on:
------------|
------------|
-3----------|
-3----------|
-1----------|
------------|






Like us on Facebook