Tread The Floods Tab - Trivium






                            Trivium-Tread the floods

Tuning: It is in drop d
Well thats the way i learned it anyway.


Intro:
1----------------------------------------------------------------------------|
2-----------------------------------------------------11-8-----10-8----------|
3-12-0-0-7-0-0-8-0-0-10-0-0-7h8p7------12-0-0-7-0-0-8------0-0------0-0-12-0-|
4---------------------------------10p8---------------------------------------|
5----------------------------------------------------------------------------|
6----------------------------------------------------------------------------|

1---------------11h10h8-------------------------------------------------------|
2-----------------------11h10h8-----------------------------------------------|
3-0-7-0-0-8-0-0-----------------10h8h7--------12-0-0-7-0-0-8-0-0-10-0-0-7h8p7-|
4--------------------------------------10h8h7---------------------------------|
5-----------------------------------------------------------------------------|
6-----------------------------------------------------------------------------|

1---------------------11h10h8------------------------------------------------|
2-----------------------------11h10h8----------------------------------------|
3------12-0-0-7-0-0-8-----------------10h8h7--------8h7h5--------------------|
4-10p8---------------------------------------10h8h7-------8h7h5--------------|
5---------------------------------------------------------------8h6h5--------|
6---------------------------------------------------------------------10h8h7-|

Second parrt (riff 2):

1
2
3
4-5-----------------10-6-8-5---------------------------5-----------------|
5-5-----------------10-6-8-5-----------------6---------5-----------------|
6-5-5-5-5-5-5-5-5-5-10-6-8-5-5-5-5-5-5-5-5-6---6-5-6-3-5-5-5-5-5-5-5-5-5-|
    - - - - - - - -  P.M.    - - - - - -                 - - - - - - - -

I cant figure out the harmony yet or the pre chorus so heres the chorus

1-----------------------------------------------|
2-----------------------------------------------|
3-----------------------------------------------|
4-----------------------------------------------|
5-5--------5---------8---------3----8----7----5-|
6-5--------7---------8---------3----8----7----5-|

Play same lead in the intro with the rythm behind it as a second guitar.

Rythm fo solo:

1----------------------------------------------------------------------------|
2----------------------------------------------------------------------------|
3----------------------------------------------------------------------------|
4-5----5--------------------5-5-1----1--------------------1-1----------------|
5-5----5--------------------5-5-1----1--------------------1-1----------------|
6-5-55-5-555-555-555-555-55-5-5-1-11-1-111-111-111-111-11-1-1----------------|
    --   --- --- --- --- --  pm   --   --- --- --- --- -- pm

Im workin on the solo now so ill have it done this week so have fun with this so far

by:
    Senor Extropolopiketle

(AKA as Tyler Boyd)






Like us on Facebook