When All Light Dies Tab - Trivium






-------------------------------------------------------------------------------
     When All Light Dies - Trivium
-------------------------------------------------------------------------------
Tabbed by: Joshua Coppola
Email: joshcoppola@adelphia.net

Tuning: DADGBe

So far nobody has ventured a shot at the full song, so I'll take the plunge. I think the 
tab is fairly straightforward and easy to read but email me if you have any problems
or corrections.


Intro:

   guitar 1:repeat 2x
e|-----------------------------------|--------------------------------------------|
B|o----------------------------------|-------------------------------------------o|
G|-----------------------------------|--------------------------------------------|
D|-----------------------------------|--------------------------------------------|
A|o----7/8--85--5/10--104---5---7--|--12-13--13-12-10h12p10--8h10p8--7h8p74---o|
D|------------------------------x----|--------------------------------------------|
 |  |
 | guitar 2:  |
e|-----------------------------------|--------------------------------------------|
B|o----------------------------------|-------------------------------------------o|
G|-----------------------------------|--------------------------------------------|
D|--0--------------------------------|--0-----------------------------------------|
A|o-0--------------------------------|--0----------------------------------------o|
D|--0--------------------------------|--0-----------------------------------------|



   guitar 1:repeat 4x
e|-----------------------------------|--------------------------------------------|
B|o----------------------------------|-------------------------------------------o|
G|-----------------------------------|--------------------------------------------|
D|-----------------------------------|--------------------------------------------|
A|o----7/8--85--5/10--104---5---7--|--12-13--13-12-10h12p10--8h10p8--7h8p74---o|
D|---0--------------------------x----|--------------------------------------------|
 |  |
 |guitar 2:  |
e|-----------------------------------|--------------------------------------------|
B|o----------------------------------|-------------------------------------------o|
G|-----------------------------------|--------------------------------------------|
D|---0---0---0---0----2----2----3--3-|--8----8----8----8----7----7----3----3------|
A|o--0---0---0---0----2----2----3--3-|--8----8----8----8----7----7----3----3-----o|
D|---0---0---0---0----2----2----3--3-|--8----8----8----8----7----7----3----3------|


Guitar 1 and 2 are mostly the same for the rest of the song, except for some harmonizing at the end. 
The tab continues for 1 guitar. 


Verse (alternate pick the low D string):
e|--------------------------------------|-------------------------------------|
B|o-------------------------------------|-------------------------------------|
G|--------------------------------------|-------------------------------------|
D|--------------------------------------|-------------------------------------|
A|o-5------5------5------5------7----7--|-8------8------8------8------7----7--|
D|----0000---0000---0000---0000---00----|---5555---5555---5555---5555---55----|



repeat 4x
e|--------------------------------------|-------------------------------------|
B|--------------------------------------|------------------------------------o|
G|--------------------------------------|-------------------------------------|
D|--7-----7------7------7------5----5---|-5------5------5---------------------|
A|--------------------------------------|------------------5----4+-----------o|
D|---3333---3333---3333---3333---33-----|---2222---2222------00---------------|






Verse pt 2repeat 2x
e|------------------------------------------------------------------------------------|
B|o----------------------------------------------------------------------------------o|
G|------------------------------------------------------------------------------------|
D|--3------------------2--------------------5-5-5-5-5-5-5-5-5-5--7-7-7-7-7--3-3-2-2---|
A|o-5------------5-4-5-4--4-4-4-4-4--5-4-5--7-7-7-7-7-7-7-7-7-7--8-8-8-8-8--5-5-4-4--o|
D|----0000000000---------0-0-0-0-0----------------------------------------------------|





Verse pt 3/pre-chorus:
e|------------------------------|---------------------------------------------|
B|o-----------------------------|---------------------------------------------|
G|------------------------------|---------------------------------------------|
D|------------------------------|---------------------------------------------|
A|o-7----8----7----8----10---8--|-7----8----7----12----10---8-----------------|
D|----00---00---00---00----0----|---00---00---00----00----0-------------------|


repeat 2x
e|------------------------------|--------------------------------------------|
B|------------------------------|-------------------------------------------o|
G|------------------------------|--------------------------------------------|
D|-3----2----3----5----3---2----|-3----2----3----5----3----2-----------------|
A|------------------------------|-------------------------------------------o|
D|---33---33---33---33---3------|---22---22---2----22---22-------------------|




Chorusrepeat 2x
e|----------------------------------------------------------------------------|
B|o--------------------------------------------------------------------------o|
G|----------------------------------------------------------------------------|
D|--0--0--0--0--8--8--8--8--5--5--5--5--7--7--3--2----------------------------|
A|o-0--0--0--0--8--8--8--8--5--5--5--5--7--7--3--2---------------------------o|
D|--0--0--0--0--8--8--8--8--5--5--5--5--7--7--3--2----------------------------|




Repeat the whole structure again excluding the intro, and then it goes to the breakdown:

e|---------------------------------------------------------------------------|
B|--------l------r-------f------a---v-------l-------t------------------------|
G|----------e------i-------o----------e-------o-------i----------------------|
D|--0---------t------n-------r----------r-------n-------m--------------------|
A|--0------------------g------------------y-------g-------e------------------|
D|--0------------------------------------------------------------------------|
     


repeat as needed:
e|-----------------------------------------------------|
B|-----------------------------------------------------|
G|-----------------------------------------------------|
D|-----------------------------------------------------|
A|-----------------------------------------------------|
D|--00-00-00---00-00-00---00-00-00---0000-0000---------|



then:
e|---------------------------------------------------------------------------|
B|o--------------------------------------------------------------------------|
G|---------------------------------------------------------------------------|
D|-------0--------0-------0--------0--------0--------0--------0--------0-----|
A|o------0--------0-------0--------0--------0--------0--------0--------0-----|
D|---000-0---000--0---000-0---000--0---000--0---000--0---000--0---000--0-----|

repeat 2x
e|---------------------------------------------------------------------------|
B|--------------------------------------------------------------------------o|
G|---------------------------------------------------------------------------|
D|------1/4------0-------4/5-------0--------5/8-------0----8-7-5-0-8-7-5-3---|
A|------1/4------0-------4/5-------0--------5/8-------0----8-7-5-0-8-7-5-3--o|
D|-000--1/4--000-0--000--4/5--000--0---000--5/8--000--0----8-7-5-0-8-7-5-3---|



Rythm to the solo, repeat as needed:
e|---------------------------------------------------------------------------|
B|---------------------------------------------------------------------------|
G|---------------------------------------------------------------------------|
D|--------------------------------------------8--5--7--10--------------------|
A|-0--------0----------0----------0-----------8--5--7--10--------------------|
D|-0-000000-0-00000000-0-00000000-0-00000000--8--5--7--10--------------------|


After the solo:
e|----------------------------------------|
B|----------------------------------------|
G|----------------------------------------|
D|-------0--------0-------0--------0------|
A|-------0--------0-------0--------0------|
D|---000-0---000--0---000-0---000--0------|


                 repeat 4x
e|------------------------|
B|o----------------------o|
G|------------------------|
D|---8-7-5-0-8-7-5-3------|
A|o--8-7-5-0-8-7-5-3-----o|
D|---8-7-5-0-8-7-5-3------|


Outro:repeat as needed
e|-----------------------------------------------------------------------------------------|
B|-----------------------------------------------------------------------------------------|
G|-----------------------------------------------------------------------------------------|
D|---------------------88888888-7777-5555-1010101010101010-8888-7777-7777-8888-777-5555----|
A|--55555555-7777-8888---------------------------------------------------------------------|
D|-----------------------------------------------------------------------------------------|




| /  slide up
|   slide down
| h  hammer-on
| p  pull-off
| ~  vibrato
| +  harmonic
| x  Mute note
===============================================================================






Like us on Facebook