Age Of Pamparius Bass Tab - Turbonegro




---------------------------------------------
Song: The Age Of Pamparius (bass)
By: Turbonegro

---------------------------------------------


-- And so from the ashes...

Intro : Play this one time!


G|------------|
D|------------|
A|--10-8-7----|
E|------------|

Play this four times!

G|--------------------------------------------------------------------------|
D|--------------------------------------------------------------------------|
A|--10-8-7-7-7-7-7-7-7-7-7-7-7-7-7-7-7-7------------------------------------|
E|-----------------------------------------8-8-8-8-8-8-8-8-5-5-5-5-5-5-5-5--|


  Verse: Play this one time!


G|--------------------------------------------------------------------------|
D|--------------------------------------------------------------------------|
A|-10-8-7-7-7-7-7-7-7-7-7-7-7-7-7-7-7-7------5-5-----7-----5-5------7-------|
E|---------------------------------------5-7-----7-5---5-7-----7-5----5-7---|

Verse: Play this three times!

G|---------------------------------------------------------------------------|
D|---------------------------------------------------------------------------|
A|---7-7-7-7-7-7-7-7-7-7-7-7-7-7-7-7---------5-5-----5-----5-5------5--------|
E|---------------------------------------5-7-----7-5---5-7-----7-5-----5-7---|


Chorus: Play this two times!


G|--------------------------------------------------------------------|
D|--------------------------------------------------------------------|
A|--3-3-3-3-3-3-3-3-----------------5-5-----5-5----7-7-7-7-7-7-7-7----|
E|------------------0-0-0-0-0-0-0-0-----3-3------3--------------------|

G|--------------------------------------------------------------------|
D|--------------------------------------------------------------------|
A|--3-3-3-3-3-3-3-3-7-7-7-7-7-7-7-7-5-5-----3-----5-5-----3-----------|
E|--------------------------------------3-5---5-3-----3-5---3-5-------|

 Play this when you have played the chorus two times!

G|----------|
D|----------|
A|---5------|
E|-5---5----|


Bridge: Play this six times!

G|-----------------------------------|
D|-----------------------------------|
A|--7-7-7-7-7-7-7-7-7-7-7-7-----5-7--|
E|--------------------------5-7------|


When the song is almost finish you play this five times!

G|--------------------------------------------------------------------------|
D|--------------------------------------------------------------------------|
A|--10-8-7-7-7-7-7-7-7-7-7-7-7-7-7-7-7-7------------------------------------|
E|-----------------------------------------8-8-8-8-8-8-8-8-5-5-5-5-5-5-5-5--|

G|----------------------------------------------------------------------------------------------|
D|----------------------------------------------------------------------------------------------|
A|--10-8-3-3-3-3-3-3-3-3-3-3-3-3-3-3-3-3-3-5-5-5-5-5-5-5-5-5-5-5-5-5-5-5-5-7-Hold this note--7--|
E|----------------------------------------------------------------------------------------------|


That'll be everything you need to play this enormous song!

Please let me now if there is anything you wanna know!
staut_kar@hotmail.com

ĂŽnscrie-te la newsletter


Join the ranks ! LIKE us on Facebook