Boys From Nowhere Tab - Turbonegro




Boys From Nowhere
Turbonegro
Retox

Any Error's email me peter_s_69@hotmail.com

Intro x 1

|-----------------------------------------------------------------------|
|-----------------------------------------------------------------------|
|--7-7-7-7-----------------------------7-7-7-7--6-6-6-6--4-4-4-4-4-4-4--|
|--7-7-7-7--7-7-7-7--9-9-9-9--4-4-4-4--7-7-7-7--6-6-6-6--4-4-4-4-4-4-4--|
|--5-5-5-5--7-7-7-7--9-9-9-9--4-4-4-4--5-5-5-5--4-4-4-4--2-2-2-2-2-2-2--|
|-----------5-5-5-5--7-7-7-7--2-2-2-2-----------------------------------|


Verse 

|-------------------------------|
|-------------------------------|
|-------------------------------|
|--4----7----6----2-2-6-7-6--4--|
|--4----7----6----2-2-6-7-6--4--|
|--2----5----4----0-0-4-5-4--2--|

Immediately after the verse play this X 1

|------------------------|
|------------------------|
|--4-------7-------------|
|--4-----7-7---7---4-----|
|--2-----7-5---7---4-----|
|--------5-----5---2-----|


Chorus X 2

|------------------------------------------------------------------------|
|------------------------------------------------------------------------|
|--7-7-7-7----------------------------7-7-7-7--6-6-6-6--4-4-4-4-4-4-4-4--|
|--7-7-7-7--7-7-7-7--9-9-9-9--4-4-4-4-7-7-7-7--6-6-6-6--4-4-4-4-4-4-4-4--|
|--5-5-5-5--7-7-7-7--9-9-9-9--4-4-4-4-5-5-5-5--4-4-4-4--2-2-2-2-2-2-2-2--|
|-----------5-5-5-5--7-7-7-7--2-2-2-2------------------------------------|


Verse again X 1 
Bit after verse X 1
Chorus X 2


[Guitar during lead] X 4

|-------------------------------|
|-------------------------------|
|-------------------------------|
|--4----7----6----2-2-6-7-6--4--|
|--4----7----6----2-2-6-7-6--4--|
|--2----5----4----0-0-4-5-4--2--|


Bridge X 2

|-------------------------|
|-------------------------|
|--6----------------------|
|--6----9----7----2--9----|
|--4----9----7----2--9----|
|-------7----5----0--7----|


Bridge continue X 1

|---------------------------------------------------------------|
|---------------------------------------------------------------|
|--6-6-6---------6-6-6---------6-6-6----------------------------|
|--6-6-6--9-9-9--6-6-6--9-9-9--6-6-6--9-9-9--7-7-7-7-7-7--2--9--|
|--4-4-4--9-9-9--4-4-4--9-9-9--4-4-4--9-9-9--7-7-7-7-7-7--2--9--|
|---------7-7-7---------7-7-7---------7-7-7--5-5-5-5-5-5--0--7--|


Have Fun.


ĂŽnscrie-te la newsletter


Join the ranks ! LIKE us on Facebook