City Of Satan Bass Tab - Turbonegro




-------------------------------------------------------------------------------
     City Of Satan - Turbonegro
-------------------------------------------------------------------------------

Tabbed By : Uber-rocker
e-mail: kaigrant_88@hotmail.com

Tuning: Standard - EADG

Vocal + drum intro, then guitars come in, a few seconds later the bass comes in.

Intro/First Verse - "Oh let me tell you 'bout a city known as Satan"

G|------------------------------------
D|-------------------------------------_ play three times
A|5-7--105-7--5-7--105-7-------------/
E|------------------------------------/

Chorus - "but when you feel it and your blood runs hot" - those are 12's, not 1-2-1-2 etc

G|---------------------------------------------------------------------------|
D|---------------------------------------------------------------------------|
A|---------------121212121212121255555---------------------------------------|
E|555555555555558------------------------------------------------------------|

Post-chorus

G|---------------------------------------------------------------------------|
D|---------------------------------------------------------------------------|
A|5-7----10-105-7------5-7----10-105-7-------------------------------------|
E|---0000---------000000---0000---------000000-------------------------------|

Verse Two - "a thousand years of lies and still they've got to fake it"

G|-------------------------------------------
D|--------------------------------------------_ play twice
A|5-7--------------5-7----10-105-7-----------/
E|---00000000000000---0000---------000000----/

Chorus

G|---------------------------------------------------------------------------|
D|---------------------------------------------------------------------------|
A|---------------121212121212121255555---------------------------------------|
E|555555555555558------------------------------------------------------------|

Post-chorus

G|---------------------------------------------------------------------------|
D|---------------------------------------------------------------------------|
A|5-7----10-105-7------5-7----10-105-7-------------------------------------|
E|---0000---------000000---0000---------000000-------------------------------|

Second Chorus - "You don't really wanna go there"

G|---------------------------------------------------------------------------|
D|---------------------------------------------------------------------------|
A|7-7-7-7-7-7-7575-7-7-7-7-7-7-7575-7-7-7-7-7-7-7575-7-7-7-7-7-7-7575--------|
E|---------------------------------------------------------------------------|

Intro/First Verse

G|---------------------------------------------------------------------------|
D|---------------------------------------------------------------------------|
A|5-7--105-7--5-7--105-7---------------------------------------------------|
E|---------------------------------------------------------------------------|

Verse Three

G|-------------------------------------------
D|--------------------------------------------_ play twice
A|5-7--------------5-7------------------------/
E|---00000000000000---00000000000000---------/

Chorus

G|---------------------------------------------------------------------------|
D|---------------------------------------------------------------------------|
A|---------------121212121212121255555---------------------------------------|
E|555555555555558------------------------------------------------------------|

Post-chorus

G|-------------------------------------------------
D|--------------------------------------------------_ play twice
A|5-7----10-105-7------5-7----10-105-7------------/
E|---0000---------000000---0000---------000000-----/

Second Chorus - "You don't really wanna go there"

G|---------------------------------------------------------------------------|
D|---------------------------------------------------------------------------|
A|7-7-7-7-7-7-7575-7-7-7-7-7-7-7575-7-7-7-7-7-7-7575-7-7-7-7-7-7-7575--------|
E|---------------------------------------------------------------------------|

Interlude bit

G|-----------------------------
D|---7----7---------------------_ play three times
A|-75---75---758--758-----------/
E|5----5----5----5-------------/

Play this until the end... 

G|--------------------
D|---------------------_ repeat until the end
A|---------------------/
E|7-7-7-7-7-7-7-353---/



And that's that. 



| /  slide up
|   slide down
| h  hammer-on
| p  pull-off
| ~  vibrato
| +  harmonic
| x  Mute note
===============================================================================

ĂŽnscrie-te la newsletter


Join the ranks ! LIKE us on Facebook