f**k The World Bass Tab - Turbonegro




Turbonegro - f**k The World
Bassist - Happy Tom
Tuning - Standard
Tabbed By - Ollie Hampson

~ Let Ring

Intro & Verse
G|-------------------------------------||
D|-------------------0-0-0-0-----------|| X16
A|---------------------------3-3-3-3---|| 
E|-0-0-0-0-0-0-0-0-0-------------------||

Pre Chorus:
G|-------------------------------------------------------------------------||
D|-------------------------------------------------------------------------||
A|-3---3-3-3-3---3-3-3-3---3-3-3-3---5-7---7-7-7-7---7-7-7-7---7-7-7-7---5-||
E|-------------------------------------------------------------------------||

G|--------------------------------------------------------------------||
D|--------------------------------------------------------------------||
A|-3---3-3-3-3---3-3-3-3---3-3-3-3-5~---------------------------------||
E|-----------------------------------0---0-0-0-0---0-0-0-0---0-0-0-0-0||

Chorus
G|-------------------------------------||
D|-------------------0-0-0-0-----------|| X4
A|---------------------------3-3-3-3---|| 
E|-0-0-0-0-0-0-0-0-0-------------------||

Verse
Intro & Verse
G|-------------------------------------||
D|-------------------0-0-0-0-----------|| X8
A|---------------------------3-3-3-3---|| 
E|-0-0-0-0-0-0-0-0-0-------------------||

Pre Chorus X2:
G|-------------------------------------------------------------------------||
D|-------------------------------------------------------------------------||
A|-3---3-3-3-3---3-3-3-3---3-3-3-3---5-7---7-7-7-7---7-7-7-7---7-7-7-7---5-||
E|-------------------------------------------------------------------------||

THEN

G|--------------------------------------------------------------------||
D|--------------------------------------------------------------------||
A|-3---3-3-3-3---3-3-3-3---3-3-3-3-5~---------------------------------||
E|-----------------------------------0---0-0-0-0---0-0-0-0---0-0-0-0-0||


Chorus
G|-------------------------------------||
D|-------------------0-0-0-0-----------|| X8
A|---------------------------3-3-3-3---|| 
E|-0-0-0-0-0-0-0-0-0-------------------||


not 100% correct, please comment with corrections for me

ĂŽnscrie-te la newsletter


Join the ranks ! LIKE us on Facebook